Oops, an error
Loading. Please wait.

Swim Club Tab

version 1
version 1

Whole song

3,148 views 1 this week
3 commentsread comments
1 2 3 4 5
3 more votes to show rating
add to favorites
launch autoscroll
font size
0
reset
how to read this tab
guitar tuner
Autoscroll
slow
fast
+/-
esc
set tempo
stop
Help us to improve Ultimate-Guitar.com Take our survey!
×
Author
Difficulty
intermediate
thecavesingers.com

Capo on First fret

  G      C         G       C
|----------------|----------------|
|---3-----------3|---3-----------3|
|--0---0---0---0-|--o---0---0---0-|   Repeats during intro and verse
|------------2(H)|------------2---|   With some variations
|----2(h)3-------|----2(h)3-------|  
|3---------------|3---------------|          

|----------------|----------------|
|---0--7(p)-0--1p|---0-------0----|
|--0-------0-----|--0---2p--0-----| Repeat 4 times during both choruses
|----------------|2---2---------4-| I'm not 100% certain about the second
|7---7---2---2---|--------5---5---| measure.  But it should weork
|----------------|----------------|

At the end of the chorus, repeat this 4 times

|----------------|
|----------------|
|---0--0---0---0-|  This is pretty close. 
|--4--4----4--4--|
|5---5---5---5---|
|----------------|
Suggest correction
Give kudos to tab author, rate the tab!
1 2 3 4 5
comments
print report bad tab
3 comments total.
0 reply
veciii 31 Feb 21, 2014 11:04 AM

I see one error. I'm not sure how to fix it in the tab itself. In the "third" measure, the pull off (p) should be from 5 not from 7. (All the pull offs are to open. ) (All the hammer ons (h) are from open to that fret.) I know it's confusing how I noted it. Sorry.

0 reply
wlffmn27 106 Jun 16, 2014 06:11 PM, edited at 06:12 pm

There's one error here. The chorus is supposed to be played like this:|------------------||------------------||-------------0----||----0h4----0------||-5-------5--------||------------------|

0 reply
wlffmn27 106 Jun 16, 2014 06:14 PM

Fucked that one up haha. Sorry, it should be this:

|-----------------|
|-----------------|
|-------------0---|
|-----0h4---0-----|
|--5------5-------|
|-----------------|

guest
You may want to rate the tab now too:
select rating
Wanna post a correction for this tab? Suggest correction