Oops, an error
Loading. Please wait.

All We Know Tab

version 2
version 2

Whole song

Interactive

Video

1,219 views 105 this week
1 commentread comment
1 2 3 4 5
1 last vote to show rating
add to favorites
launch autoscroll
font size
0
reset
how to read this tab
guitar tuner
Autoscroll
slow
fast
+/-
esc
set tempo
stop
Help us to improve Ultimate-Guitar.com Take our survey!
×
Author
Difficulty
novice
All We Know
The Chainsmokers
 
[Verse 1: Phoebe Ryan and Andrew Taggart]
e|-----------------------------------------------------|
B|-----------------------------------------------------|
G|-----------------------------------------------------|
D|------2---2-----5----5-----2----2------2---0---------|
A|---3----3----3-----3----3-----3-----3----3-----------|
E|-----------------------------------------------------|
                                                       |  x4
e|-----------------------------------------------------|
B|-----------------------------------------------------|
G|-----------------------------------------------------|
D|------2---2-----5----5-----2----2------2---0---------|
A|---3----3----3-----3----3-----3-----3----3---3-------|
E|-----------------------------------------------------|

Fighting flames of fire
Hand on the burning wires
We don't care anymore
Art, we're fading never
We keep wasting colors
Maybe we should let this go
We're falling apart, still we hold together
We've passed the end so we chase forever
'Cause this is all we know
This feeling's all we know

[Chorus]
e|---1-----0-----0-----0-------------|
B|---1-----0-----1-----1-------------|
G|---2-----0-----2-----0-------------|
D|---3-----2-----2-----2-------------| x6
A|---3-----2-----0-----3-------------|
E|-----------------------------------|

I ride my bike up to the world
Down the streets right through the city
I'll go everywhere you go
From Chicago to the coast
You tell me, "Hit this and let's go
Blow the smoke right through the window"
'Cause this is all we know
'Cause this is all we know
'Cause this is all we know
'Cause this is all we know

[Hook]
e|-----------------------------------------------------|
B|-----------------------------------------------------|
G|---0-0---0-0-0-0-0---0-0-0---0-0-0-0-0---------------|
D|---2-2---2-2-2-2-2---2-2-2---2-2-2-0-0---------------| x2
A|---3-3---3-3-3-3-3---3-3-3---3-3-3-3-3---------------|
E|-----------------------------------------------------|

[Verse 2: Phoebe Ryan and Andrew Taggart]
e|-----------------------------------------------------|
B|-----------------------------------------------------|
G|-----------------------------------------------------|
D|------2---2-----5----5-----2----2------2---0---------|
A|---3----3----3-----3----3-----3-----3----3-----------|
E|-----------------------------------------------------|
                                                       | x4
e|-----------------------------------------------------|
B|-----------------------------------------------------|
G|-----------------------------------------------------|
D|------2---2-----5----5-----2----2------2---0---------|
A|---3----3----3-----3----3-----3-----3----3---3-------|
E|-----------------------------------------------------|

Never face each other
One but different covers
We don't care anymore
Two hearts still beating
On with different rhythms
Maybe we should let this go
We're falling apart, still we hold together
We've passed the end so we chase forever
'Cause this is all we know
This feeling's all we know

[Chorus]
e|---1-----0-----0-----0-------------|
B|---1-----0-----1-----1-------------|
G|---2-----0-----2-----0-------------|
D|---3-----2-----2-----2-------------|x6
A|---3-----2-----0-----3-------------|
E|-----------------------------------|

I ride my bike up to the world
Down the streets right through the city
I'll go everywhere you go
From Chicago to the coast
You tell me, "Hit this and let's go
Blow the smoke right through the window"
'Cause this is all we know
'Cause this is all we know
'Cause this is all we know
'Cause this is all we know

[Hook]
e|-----------------------------------------------------|
B|-----------------------------------------------------|
G|---0-0---0-0-0-0-0---0-0-0---0-0-0-0-0---------------|
D|---2-2---2-2-2-2-2---2-2-2---2-2-2-0-0---------------| x2
A|---3-3---3-3-3-3-3---3-3-3---3-3-3-3-3---------------|
E|-----------------------------------------------------|
Suggest correction
Give kudos to tab author, rate the tab!
1 2 3 4 5
comments
print report bad tab
1 comment total.
0 reply
song.shuen 67 Dec 01, 2016 12:49 PM

quite good tho but the 5 on the d string could be a 0 on the g string and its easier to play :P

guest
You may want to rate the tab now too:
select rating
Wanna post a correction for this tab? Suggest correction