Oops, an error
Loading. Please wait.

All We Know Tab

version 3
version 3

Whole song

Interactive

Video

2,473 views 408 this week
no commentswrite comment
1 2 3 4 5
2 more votes to show rating
add to favorites
launch autoscroll
font size
0
reset
how to read this tab
guitar tuner
Autoscroll
slow
fast
+/-
esc
set tempo
stop
Help us to improve Ultimate-Guitar.com Take our survey!
×
Author
Difficulty
Capo
intermediate
2nd fret
Riff
Choose two different positions Method 1 or 2.
Both positions sound exactly the same but it's up to you which ones more comfortable for you to play

 
[Verse]Method 1

e|----------------------|--------3----------3---|---------------------|------------------------|
B|-------5----------5---|-----------------------|--------5---------5--|-----5--------3---------|
G|----------------------|-----------------------|---------------------|------------------------|
D|----------------------|-----------------------|---------------------|------------------------|
A|---3---------3--------|---3----------3--------|----0--------0-------|--0-------0-------------|
E|----------------------|-----------------------|---------------------|------------------------|

e|----------------------|--------3----------3---|---------------------|------------------------|
B|-------5----------5---|-----------------------|--------5---------5--|-----5--------3---------|
G|----------------------|-----------------------|---------------------|------------------5-----|
D|----------------------|-----------------------|---------------------|------------------------|
A|---3---------3--------|---3----------3--------|----0--------0-------|--0-------0-------------|
E|----------------------|-----------------------|---------------------|------------------------|

Verse Method 2
e|------0--------0--|-----3--------3---|------0-----0--|-----0-------------------------|
B|------------------|------------------|---------------|--------------3----------------|
G|------------------|------------------|---------------|-------------------------------|
D|------------------|--3-------3-------|---------------|-------------------------------|
A|--3--------3------|------------------|---0-----0-----|--0-------0--------------------|
E|------------------|------------------|---------------|-------------------------------|


e|------0--------0--|-----3--------3---|------0-----0--|-----0-------------------------|
B|------------------|------------------|---------------|--------------3--1-------------|
G|------------------|------------------|---------------|-------------------------------|
D|------------------|--3-------3-------|---------------|-------------------------------|
A|--3--------3------|------------------|---0-----0-----|--0-------0--------------------|
E|------------------|------------------|---------------|-------------------------------|


[Prechorus] 

e|--------------------|---------3---------3--|-------------------|-------------------|
B|------5---------5---|----------------------|-------5-------5---|-------5------3----|
G|--------------------|----------------------|-------------------|-------------------|
D|--------------------|----3---------3-------|-------------------|-------------------|
A|--0--------0--------|----------------------|---3-------3-------|---3------3--------|
E|--------------------|----------------------|-------------------|-------------------|

e|--------------------|---------3---------3--|-------------------|--------------------|
B|------5---------5---|----------------------|-------5-------5---|-------5------3-----|
G|--------------------|----------------------|-------------------|------------------5-|
D|--------------------|----3---------3-------|-------------------|--------------------|
A|--0--------0--------|----------------------|---3-------3-------|---3------3---------|
E|--------------------|----------------------|-------------------|--------------------|




More Tutorial :
https://www.youtube.com/watch?v=URlPnEyGU0Y


Suggest correction
Give kudos to tab author, rate the tab!
1 2 3 4 5
comments
print report bad tab
guest
You may want to rate the tab now too:
select rating
Wanna post a correction for this tab? Suggest correction