Oops, an error
Loading. Please wait.

All We Know tab

version 4
version 4

Whole song

Interactive

Video

895 views 12 this week
2 commentsread comments
1 2 3 4 5
x 3
add to favorites
×
Save as Personal and add changes to this tab that will be seen only by you. Learn more ›
×
You can save this tab as Personal to edit and correct it or add notes. All changes will be seen only by you. Learn more »
launch autoscroll
font size
0
reset
how to read this tab
guitar tuner
edit
Autoscroll
slow
fast
+/-
esc
set tempo
stop
Author
Difficulty
About this tab version
Full fingerstyle arrangement by andrew foy. Was this info helpful? Yes No
Fingerstyle Arrangement by Andrew Foy
https://www.youtube.com/watch?v=06P_DZOnF_Q

[Intro]
e|---------------------------------------------------------------------------|
B|---------------------------------------------------------------------------|
G|-----9----9-------12------12------9-----9------9---------------------------|
D|--10---10------10-----10-------10---10------10----10--12-------------------|
A|---------------8---------------0------------0------------------------------|
E|--8------------------------------------------------------------------------|

e|---------------------------------------------------------------------------|
B|---------------------------------------------------------------------------|
G|-----9----9-------12------12------9-----9------9---------------------------|
D|--10---10------10-----10-------10---10------10----10--12\------------------|
A|---------------8---------------0------------0------------------------------|
E|--8------------------------------------------------------------------------|

[Verse]
e|---------------------------------------------------------------------------|
B|--------------------------------------------------8p5----------------------|
G|--------------------------7h9-----4/5-----5-5-5----------------------------|
D|----10-----10--/10--10------------4/5-----5---------------10-----10--/10---|
A|----10--x--10--/8------8--------0------x----0---0---------10--x--10--/8----|
E|-/8-----x------------------------------x---------------/8-----x------------|

e|---------------------------------------------------------------------------|
B|--------------------------5------------------------------------------------|
G|------7h9----4/5-----5--5---5h7-----------------------------7h9----4/5---5-|
D|-10----------4/5-----5-----------5-----10-----10--/10-10-----------4/5---5-|
A|----8------0------x-----0---0----------10--x--10--/8-----8--x----0-----x---|
E|------------------x-----------------/8-----x----------------x----------x---|

e|---------------------------------------------------------------------------|
B|-------8p5-----------------------------------------5-----------------------|
G|-5-5----------------------------7h9----4/5---5---5------5h7----------------|
D|-------------10---10--/10-10-----------4/5---5---------------5-------------|
A|-0---0-x-----10-x-10--/8-----8--x----0-----x---x-0---x--0-x----------------|
E|-------x--/8----x---------------x----------x---x-----x----x----------------|

[Pre-Chorus]
e|----5-5-5--------------------------------------------------------------5---|
B|---5------8---8--5--8p5-----------------------------------------------5----|
G|--5-------5------5--5-------7p5--------------------9-----------------5-----|
D|-----------------5---------------5-----10---10--10-------10/12\------------|
A|-0----------x----8-------x-------------10-x-10--------x------x------0------|
E|------------x------------x----------/8----x-----8-----x--8---x-------------|

e|--5-5----------------------------------------------------------------------|
B|------8---8--5--8p5--------------------------------------------------------|
G|------5------5--5-------7p5--------------------9--------------4/5-5---5-7/9|
D|-------------5---------------5-----10---10--10-------10/12\---4/5-5---5----|
A|--------x----8-------x-------------10-x-10--------x------x----0-----0-x----|
E|--------x------------x----------/8----x-----8-----x--8---x------------x----|

e|--------------------------------------------8-8---8--8/12--10--10/12\10\8--|
B|--------------------------------------------5-5---5--5/9----7---7/-9-\7\5--|
G|-7-7/9\7p5-4----0--------------9------------5-5---5------------------------|
D|--------------7----7/10----10------10/12\----------------------------------|
A|-8-------x----8----x-------------x----x-----0---0-x---------8--------------|
E|---------x---------x-----8-------x----x-----------x------------------------|

e|-7---5---3----5/8----------------------------------------------------------|
B|-4-------------------------------------------------------------------------|
G|---------------------------------------------------------------------------|
D|-----------------------10-10-10\-------------------------------------------|
A|-----3--------x------------------------------------------------------------|
E|--------------x------8-----------------------------------------------------|

[Chorus]
e|-------0------------------------0----------------------------0-------------|
B|--1h3-------1-1--------1-1--1h3-------1-1-1h3-1---1-1---1h3-------1-1------|
G|--2--------------0----------0-------------0-------------2--------------0---|
D|--3-------3-------------------------------2-------------3-------3----------|
A|----------------------------0------0------3-----3--------------------------|
E|-----------------3--3--------------------------------------------------3-3-|

e|----------0-----------------------3-3---3-0------------3-3----3-0----------|
B|-1-1--1h3-------1-1-1h3-1---1-1---1----------3----1-1--0-----------3-1-----|
G|------0-------------0-------------2----------0---------0-----------0-------|
D|--------------------2-------------3---3----------------2-----------2-------|
A|------0------0------3-----3---------------------------------0------3-------|
E|---------------------------------------------3--3--------------------------|


e|-----------------0---------------------------------------------------------|
B|-----1--1-1---1-----3-3/5\3--1--0-----------1------1-----------------------|
G|--------2-----------0--------------2-0-------------------------------------|
D|---2----3---3------------------------------------2-------------------------|
A|-3---------------------------------0----0------3---------x-----------------|
E|--------------------3------------------------------------x-----------------|

[Post-Chorus]
e|---------------------------------------------------------------------------|
B|---------------------------------------------------------------------------|
G|--/9---9---9-----9/12----9---9---9---9---9-----9/12------9---9---9----9/12-|
D|--/10--10--10----10/13---10--10--10--10--10----10/13-----10--10--10---10/13|
A|---0----------0--x-------8------------------8--x------0---------------x----|
E|-----------------x-----------------------------x---------8----------8-x----|

e|---------------------------------------------------------------------------|
B|---------------------------------------------------------------------------|
G|-9---9---9---9---9-----9/12------9---9---9-----9/13---9---9---9---9---9----|
D|-10--10--10--10--10----10/13--0--10--10--10----10/13--10--10--10--10--10---|
A|-----------------------x---------0----------0--x------8------------------8-|
E|-8------------------8--x-----------------------x---------------------------|

e|---------------------------------------------------------------------------|
B|---------------------------------------------------------------------------|
G|--9/12-----------------------9--7--7/9\7\5--4------------------------------|
D|--10/13-------10--10-----10------------------------------------------------|
A|--x-------0--------------x---------------x---------------------------------|
E|--x-----------8-------8--x---8-----------x---------------------------------|

e|---------------------------------------------------------------------------|
B|---------------------------------------------------------------------------|
G|--/9---9---9-----9/12----9---9---9---9---9-----9/12------9---9---9----9/12-|
D|--/10--10--10----10/13---10--10--10--10--10----10/13-----10--10--10---10/13|
A|---0----------0--x-------8------------------8--x------0---------------x----|
E|-----------------x-----------------------------x---------8----------8-x----|

e|---------------------------------------------------------------------------|
B|---------------------------------------------------------------------------|
G|-9---9---9---9---9-----9/12------9---9---9-----9/13---9---9---9---9---9----|
D|-10--10--10--10--10----10/13--0--10--10--10----10/13--10--10--10--10--10---|
A|-----------------------x---------0----------0--x------8------------------8-|
E|-8------------------8--x-----------------------x---------------------------|

e|---------------------------------------------------------------------------|
B|---------------------------------------------------------------------------|
G|--9/12-----------------------9--7--7/9\7\5--4------------------------------|
D|--10/13-------10--10-----10------------------------------------------------|
A|--x-------0--------------x---------------x---------------------------------|
E|--x-----------8-------8--x---8-----------x---------------------------------|

[Verse]
e|---------------------------------------------------------------------------|
B|--------------------------------------------------8p5----------------------|
G|--------------------------7h9-----4/5-----5-5-5----------------------------|
D|----10-----10--/10--10------------4/5-----5---------------10-----10--/10---|
A|----10--x--10--/8------8--------0------x----0---0---------10--x--10--/8----|
E|-/8-----x------------------------------x---------------/8-----x------------|

e|---------------------------------------------------------------------------|
B|--------------------------5------------------------------------------------|
G|------7h9----4/5-----5--5---5h7-----------------------------7h9----4/5---5-|
D|-10----------4/5-----5-----------5-----10-----10--/10-10-----------4/5---5-|
A|----8------0------x-----0---0----------10--x--10--/8-----8--x----0-----x---|
E|------------------x-----------------/8-----x----------------x----------x---|

e|---------------------------------------------------------------------------|
B|-------8p5-----------------------------------------5-----------------------|
G|-5-5----------------------------7h9----4/5---5---5------5h7----------------|
D|-------------10---10--/10-10-----------4/5---5---------------5-------------|
A|-0---0-x-----10-x-10--/8-----8--x----0-----x---x-0---x--0-x----------------|
E|-------x--/8----x---------------x----------x---x-----x----x----------------|

[Pre-Chorus]
e|----5-5-5--------------------------------------------------------------5---|
B|---5------8---8--5--8p5-----------------------------------------------5----|
G|--5-------5------5--5-------7p5--------------------9-----------------5-----|
D|-----------------5---------------5-----10---10--10-------10/12\------------|
A|-0----------x----8-------x-------------10-x-10--------x------x------0------|
E|------------x------------x----------/8----x-----8-----x--8---x-------------|

e|--5-5----------------------------------------------------------------------|
B|------8---8--5--8p5--------------------------------------------------------|
G|------5------5--5-------7p5--------------------9--------------4/5-5---5-7/9|
D|-------------5---------------5-----10---10--10-------10/12\---4/5-5---5----|
A|--------x----8-------x-------------10-x-10--------x------x----0-----0-x----|
E|--------x------------x----------/8----x-----8-----x--8---x------------x----|

e|--------------------------------------------8-8---8--8/12--10--10/12\10\8--|
B|------------------------------9-------------5-5---5--5/9----7---7/-9-\7\5--|
G|-7-7/9\7p5-4----0---------------------------5-5---5------------------------|
D|--------------7----7/10----10------10/12\----------------------------------|
A|-8-------x----8----x-------------x----x-----0---0-x---------8--------------|
E|---------x---------x-----8-------x----x-----------x------------------------|

e|-7---5--3--3--5/8----------------------------------------------------------|
B|-4-------------------------------------------------------------------------|
G|---------------------------------------------------------------------------|
D|-----------------------10-10-10\-------------------------------------------|
A|-----3--------x------------------------------------------------------------|
E|--------------x------8-----------------------------------------------------|

[Chorus]
e|-------0------------------------0----------------------------0-------------|
B|--1h3-------1-1--------1-1--1h3-------1-1-1h3-1---1-1---1h3-------1-1------|
G|--2--------------0----------0-------------0-------------2--------------0---|
D|--3-------3-------------------------------2-------------3-------3----------|
A|----------------------------0------0------3-----3--------------------------|
E|-----------------3--3--------------------------------------------------3-3-|

e|----------0-----------------------3-3---3-0------------3-3----3-0----------|
B|-1-1--1h3-------1-1-1h3-1---1-1---1----------3----1-1--0-----------3-1-----|
G|------0-------------0-------------2----------0---------0-----------0-------|
D|--------------------2-------------3---3----------------2-----------2-------|
A|------0------0------3-----3---------------------------------0------3-------|
E|---------------------------------------------3--3--------------------------|


e|-----------------0-------------------------1-------------------------------|
B|-----1--1-1---1-----3-3/5\3--1--0------------------1-----------------------|
G|--------2-----------0--------------2-0-------------------------------------|
D|---2----3---3------------------------------------2-------------------------|
A|-3---------------------------------0----0------3---------x-----------------|
E|--------------------3------------------------------------x-----------------|

[Post-Chorus]
e|---------------------------------------------------------------------------|
B|---------------------------------------------------------------------------|
G|--/9---9---9-----9/12----9---9---9---9---9-----9/12------9---9---9----9/12-|
D|--/10--10--10----10/13---10--10--10--10--10----10/13-----10--10--10---10/13|
A|---0----------0--x-------8------------------8--x------0---------------x----|
E|-----------------x-----------------------------x---------8----------8-x----|

e|---------------------------------------------------------------------------|
B|---------------------------------------------------------------------------|
G|-9---9---9---9---9-----9/12------9---9---9-----9/13---9---9---9---9---9----|
D|-10--10--10--10--10----10/13--0--10--10--10----10/13--10--10--10--10--10---|
A|-----------------------x---------0----------0--x------8------------------8-|
E|-8------------------8--x-----------------------x---------------------------|

e|---------------------------------------------------------------------------|
B|---------------------------------------------------------------------------|
G|--9/12-----------------------9--7--7/9\7\5--4------------------------------|
D|--10/13-------10--10-----10------------------------------------------------|
A|--x-------0--------------x---------------x---------------------------------|
E|--x-----------8-------8--x---8-----------x---------------------------------|

e|---------------------------------------------------------------------------|
B|---------------------------------------------------------------------------|
G|--/9---9---9-----9/12----9---9---9---9---9-----9/12------9---9---9----9/12-|
D|--/10--10--10----10/13---10--10--10--10--10----10/13-----10--10--10---10/13|
A|---0----------0--x-------8------------------8--x------0---------------x----|
E|-----------------x-----------------------------x---------8----------8-x----|

e|---------------------------------------------------------------------------|
B|---------------------------------------------------------------------------|
G|-9---9---9---9---9-----9/12------9---9---9-----9/13---9---9---9---9---9----|
D|-10--10--10--10--10----10/13--0--10--10--10----10/13--10--10--10--10--10---|
A|-----------------------x---------0----------0--x------8------------------8-|
E|-8------------------8--x-----------------------x---------------------------|

e|---------------------------------------------------------------------------|
B|---------------------------------------------------------------------------|
G|--9/12-----------------------9--7--7/9\7\5--4------------------------------|
D|--10/13-------10--10-----10------------------------------------------------|
A|--x-------0--------------x---------------x---------------------------------|
E|--x-----------8-------8--x---8-----------x---------------------------------|

[Outro]
e|------<12>-<15>---------<12>-<15>--------<12>-<15>---------<12>-<15>-------|
B|-<13>-------------<12>--------------<13>--------------<12>-----------------|
G|---------------------------------------------------------------------------|
D|---------------------------------------------------------------------------|
A|--0----------------------------------3-----------------3-------------------|
E|-------------------0-------------------------------------------------------|

e|------<12>-<15>---------<12>-<15>--------<12>-<15>---------<12>-<15>-------|
B|-<13>-------------<12>--------------<13>--------------<12>-----------------|
G|---------------------------------------------------------------------------|
D|---------------------------------------------------------------------------|
A|--0----------------------------------3-----------------3-------------------|
E|-------------------0-------------------------------------------------------|

************************************

| x   Dead note
| h   Hammer-on
| p   Pull-off
| /   Slide up
| \   Slide down
|<->  Harmonic

************************************

            
            
Suggest correction
Creating personal tab
Creating personal tab
You can edit any tab online and save it as your Personal.

You can edit, replace or remove any tab part or add personal notes – all changes will be seen only by you.

Personal tabs can be accessed anytime from any device, even offline.
Learn more »
Give kudos to tab author, rate the tab!
1 2 3 4 5
comments
print report bad tab
2 comments total.
+1 reply
gluck 10 Jun 06, 2017 10:08 PM

¡esta también! ya me la aprendí, las tres tab que he aprendido de este autor suenan genial; Gracias por la tab.

guest
You may want to rate the tab now too:
select rating
Wanna post a correction for this tab? Suggest correction