Oops, an error
Loading. Please wait.
We have Chord Pro version of Closer.
It's the closest thing you can get to the original song and it has interactive parts. Check out the tab »
×

Closer tab

version 1
version 1

Whole song

Interactive

Video

178,573 views 804 this week
3 commentsread comments
1 2 3 4 5
x 28
add to favorites
×
Save as Personal and add changes to this tab that will be seen only by you. Learn more ›
×
You can save this tab as Personal to edit and correct it or add notes. All changes will be seen only by you. Learn more »
launch autoscroll
font size
0
reset
how to read this tab
guitar tuner
edit
Autoscroll
slow
fast
+/-
esc
set tempo
stop
Author
Closer
The Chainsmokers

There are three parts to this song


[Chorus]

      C#    D#    Fm    D#
e|----------------------------------------------------------------|
B|----6-----8-----9-----8-----------------------------------------|
G|----6-----8-----10----8-----------------------------------------|
D|----6-----8-----10----8-----------------------------------------|
A|----4-----6-----8-----6-----------------------------------------|
E|----------------------------------------------------------------|

or you can play it like this

      C#    D#    Fm    D#
e|----------------------------------------------------------------|
B|----------------------------------------------------------------|
G|----6-----8-----5-----3-----------------------------------------|
D|----6-----8-----6-----5-----------------------------------------|
A|----4-----6-----8-----6-----------------------------------------|
E|----------------------------------------------------------------|

[Verse]

     C#     D#     Fm    D#  
e|----------------------------------------------------------------|
B|----6-----8-8----9-----8-8--------------------------------------|
G|----6-----8-8----10----8-8--------------------------------------|
D|----6-----8-8----10----8-8--------------------------------------|
A|----4-----6-6----8-----6-6--------------------------------------|
E|----------------------------------------------------------------|


[Drop]

e|----------------------------------------------------------------|
B|----------------------------------------------------------------|
G|----------------------------------------------------------------|
D|------6-8-8-6--6-8-8-6--6-10-10-6--6-8-8-6----------------------|
A|----------------------------------------------------------------|
E|----------------------------------------------------------------|

e|----------------------------------------------------------------|
B|----------------------------------------------------------------|
G|----------------------------------------------------------------|
D|------6-8-8-6--6-8-8-6--6-10-10-6--6-8-8-10---------------------|
A|----------------------------------------------------------------|
E|----------------------------------------------------------------|

e|----------------------------------------------------------------|
B|----------------------------------------------------------------|
G|----------------------------------------------------------------|
D|------6-8-8-10-6-8-8-6--6-10-10-6--6-8-8-6----------------------|
A|----------------------------------------------------------------|
E|----------------------------------------------------------------|

e|----------------------------------------------------------------|
B|----------------------------------------------------------------|
G|----------------------------------------------------------------|
D|------6-8-8-6--6-8-8-6--6-10-10-6--6-8-8-6----------------------|
A|----------------------------------------------------------------|
E|----------------------------------------------------------------|



[Verse]

     C#     D#     Fm    D#  
e|----------------------------------------------------------------|
B|----6-----8-8----9-----8-8--------------------------------------|
G|----6-----8-8----10----8-8--------------------------------------|
D|----6-----8-8----10----8-8--------------------------------------|
A|----4-----6-6----8-----6-6--------------------------------------|
E|----------------------------------------------------------------|

Hey, I was doing just fine just before I met you
I drank too much and that's an issue but I'm okay
Hey, you tell your friends it was nice to meet them
But I hope I never see them again

I know it breaks your heart
Moved to the city in a broke down car and
Four years, no calls
Now you're looking pretty in a hotel bar and
I can't stop
No, I can't stop


[Chorus]

     C#     D#     Fm    D#  
e|----------------------------------------------------------------|
B|----6-----8-8----9-----8-8--------------------------------------|
G|----6-----8-8----10----8-8--------------------------------------|
D|----6-----8-8----10----8-8--------------------------------------|
A|----4-----6-6----8-----6-6--------------------------------------|
E|----------------------------------------------------------------|

So baby pull me closer in the backseat of your Rover
That I know you can't afford
Bite that tattoo on your shoulder
Pull the sheets right off the corner
Of the mattress that you stole
From your roommate back in Boulder
We ain't ever getting older


[Drop]

e|----------------------------------------------------------------|
B|----------------------------------------------------------------|
G|----------------------------------------------------------------|
D|------6-8-8-6--6-8-8-6--6-10-10-6--6-8-8-6----------------------|
A|----------------------------------------------------------------|
E|----------------------------------------------------------------|

e|----------------------------------------------------------------|
B|----------------------------------------------------------------|
G|----------------------------------------------------------------|
D|------6-8-8-6--6-8-8-6--6-10-10-6--6-8-8-10---------------------|
A|----------------------------------------------------------------|
E|----------------------------------------------------------------|

e|----------------------------------------------------------------|
B|----------------------------------------------------------------|
G|----------------------------------------------------------------|
D|------6-8-8-10-6-8-8-6--6-10-10-6--6-8-8-6----------------------|
A|----------------------------------------------------------------|
E|----------------------------------------------------------------|

e|----------------------------------------------------------------|
B|----------------------------------------------------------------|
G|----------------------------------------------------------------|
D|------6-8-8-6--6-8-8-6--6-10-10-6--6-8-8-6----------------------|
A|----------------------------------------------------------------|
E|----------------------------------------------------------------|


We ain't ever getting older
We ain't ever getting older


[Verse]

     C#     D#     Fm    D#  
e|----------------------------------------------------------------|
B|----6-----8-8----9-----8-8--------------------------------------|
G|----6-----8-8----10----8-8--------------------------------------|
D|----6-----8-8----10----8-8--------------------------------------|
A|----4-----6-6----8-----6-6--------------------------------------|
E|----------------------------------------------------------------|

You, look as the good as the day as I met you
I forget just why I left you, I was insane
Stay, and play that Blink-182 song
That we beat to death in Tuscon, okay

I know it breaks your heart
I moved to the city in a broke down car and
Four years, no calls
Now you're looking pretty in a hotel bar and
I can't stop
No, I can't stop


[Chorus]

      C#    D#    Fm    D#
e|----------------------------------------------------------------|
B|----6-----8-----9-----8-----------------------------------------|
G|----6-----8-----10----8-----------------------------------------|
D|----6-----8-----10----8-----------------------------------------|
A|----4-----6-----8-----6-----------------------------------------|
E|----------------------------------------------------------------|

So baby pull me closer in the backseat of your Rover
That I know you can't afford
Bite that tattoo on your shoulder
Pull the sheets right off the corner
Of the mattress that you stole
From your roommate back in Boulder
We ain't ever getting older


[Drop]

e|----------------------------------------------------------------|
B|----------------------------------------------------------------|
G|----------------------------------------------------------------|
D|------6-8-8-6--6-8-8-6--6-10-10-6--6-8-8-6----------------------|
A|----------------------------------------------------------------|
E|----------------------------------------------------------------|

e|----------------------------------------------------------------|
B|----------------------------------------------------------------|
G|----------------------------------------------------------------|
D|------6-8-8-6--6-8-8-6--6-10-10-6--6-8-8-10---------------------|
A|----------------------------------------------------------------|
E|----------------------------------------------------------------|

e|----------------------------------------------------------------|
B|----------------------------------------------------------------|
G|----------------------------------------------------------------|
D|------6-8-8-10-6-8-8-6--6-10-10-6--6-8-8-6----------------------|
A|----------------------------------------------------------------|
E|----------------------------------------------------------------|

e|----------------------------------------------------------------|
B|----------------------------------------------------------------|
G|----------------------------------------------------------------|
D|------6-8-8-6--6-8-8-6--6-10-10-6--6-8-8-6----------------------|
A|----------------------------------------------------------------|
E|----------------------------------------------------------------|

We ain't ever getting older
We ain't ever getting older


[Chorus]

      C#    D#    Fm    D#
e|----------------------------------------------------------------|
B|----6-----8-----9-----8-----------------------------------------|
G|----6-----8-----10----8-----------------------------------------|
D|----6-----8-----10----8-----------------------------------------|
A|----4-----6-----8-----6-----------------------------------------|
E|----------------------------------------------------------------|

So baby pull me closer in the backseat of your Rover
That I know you can't afford
Bite that tattoo on your shoulder
Pull the sheets right off the corner
Of the mattress that you stole
From your roommate back in Boulder


[Drop]

e|----------------------------------------------------------------|
B|----------------------------------------------------------------|
G|----------------------------------------------------------------|
D|------6-8-8-6--6-8-8-6--6-10-10-6--6-8-8-6----------------------|
A|----------------------------------------------------------------|
E|----------------------------------------------------------------|

e|----------------------------------------------------------------|
B|----------------------------------------------------------------|
G|----------------------------------------------------------------|
D|------6-8-8-6--6-8-8-6--6-10-10-6--6-8-8-10---------------------|
A|----------------------------------------------------------------|
E|----------------------------------------------------------------|

e|----------------------------------------------------------------|
B|----------------------------------------------------------------|
G|----------------------------------------------------------------|
D|------6-8-8-10-6-8-8-6--6-10-10-6--6-8-8-6----------------------|
A|----------------------------------------------------------------|
E|----------------------------------------------------------------|

e|----------------------------------------------------------------|
B|----------------------------------------------------------------|
G|----------------------------------------------------------------|
D|------6-8-8-6--6-8-8-6--6-10-10-6--6-8-8-6----------------------|
A|----------------------------------------------------------------|
E|----------------------------------------------------------------|

We ain't ever getting older
We ain't ever getting older (we ain't ever getting older)
We ain't ever getting older (we ain't ever getting older)
We ain't ever getting older (we ain't ever getting older)
We ain't ever getting older

We ain't ever getting older
No we ain't ever getting older

            
            
Suggest correction
Creating personal tab
Creating personal tab
You can edit any tab online and save it as your Personal.

You can edit, replace or remove any tab part or add personal notes – all changes will be seen only by you.

Personal tabs can be accessed anytime from any device, even offline.
Learn more »
comments
print report bad tab
3 comments total.
0 reply
nnickerson 10 Sep 18, 2016 11:40 PM

I think that I would learn better if I had the background music playing while I played the tab.that way I would get down the tempo better and be able to stay in sync. I already looked this song up on tab pro but it wasn't there.will you try to make this site able to play background music plz? Thanks *smileyface

guest
You may want to rate the tab now too:
select rating
Wanna post a correction for this tab? Suggest correction