Oops, an error
Loading. Please wait.
We have Chord Pro version of Closer.
It's the closest thing you can get to the original song and it has interactive parts. Check out the tab »
×

Closer tab

version 2
version 2

Whole song

Interactive

Video

15,172 views 27 this week
no commentswrite comment
1 2 3 4 5
x 4
add to favorites
×
Save as Personal and add changes to this tab that will be seen only by you. Learn more ›
×
You can save this tab as Personal to edit and correct it or add notes. All changes will be seen only by you. Learn more »
launch autoscroll
font size
0
reset
how to read this tab
guitar tuner
edit
Autoscroll
slow
fast
+/-
esc
set tempo
stop
Author
Difficulty
These are the four chords repeated throughout the whole song basically the last e note is optional  
Watch this for an example! https://www.youtube.com/watch?v=NeqZ0-yBASE


[Verse 1]

Db                    Ab
Hey, I was doing just fine before I met you
            Fm7                               Eb
I drink too much and that's an issue but I'm okay
Db                 Ab
Hey, you tell your friends it was nice to meet them
      Fm7                    Eb
But I hope I never see them again

      Db    Ab    Fm7   Eb
e|----6-----11----8-----6-----------------------------------------|
B|----6-----13----9-----8-----------------------------------------|
G|----6-----13----8-----8-----------------------------------------|
D|----6-----13----10----8-----------------------------------------|
A|----4-----11----8-----6-----------------------------------------|
E|----------------------------------------------------------------|


[Pre-Chorus]

Db
I know it breaks your heart
Ab
Moved to the city in a broke down car
Fm7
And four years, no calls
Eb
Now you're looking pretty in a hotel bar
    Db      Ab
And I can't stop
    Fm7     Eb
No, I can't stop

      Db    Ab    Fm7   Eb
e|----6-----11----8-----6-----------------------------------------|
B|----6-----13----9-----8-----------------------------------------|
G|----6-----13----8-----8-----------------------------------------|
D|----6-----13----10----8-----------------------------------------|
A|----4-----11----8-----6-----------------------------------------|
E|----------------------------------------------------------------|


[Chorus]

   Db                         Ab 
So baby pull me closer in the backseat of your Rover
       Fm7
That I know you can't afford
          Eb
Bite that tattoo on your shoulder
         Db
Pull the sheets right off the corner
       Ab
Of the mattress that you stole
          Fm7
From your roommate back in Boulder
         Eb
We ain't ever getting older

      Db    Ab    Fm7   Eb
e|----6-----11----8-----6-----------------------------------------|
B|----6-----13----9-----8-----------------------------------------|
G|----6-----13----8-----8-----------------------------------------|
D|----6-----13----10----8-----------------------------------------|
A|----4-----11----8-----6-----------------------------------------|
E|----------------------------------------------------------------|


[Post-Chorus]

Db    Ab   Fm7          Eb
-instrumental- We ain't ever getting older
Db    Ab   Fm7          Eb
-instrumental- We ain't ever getting older

      Db    Ab    Fm7   Eb
e|----6-----11----8-----6-----------------------------------------|
B|----6-----13----9-----8-----------------------------------------|
G|----6-----13----8-----8-----------------------------------------|
D|----6-----13----10----8-----------------------------------------|
A|----4-----11----8-----6-----------------------------------------|
E|----------------------------------------------------------------|

[Verse 2]
Db          Ab
You look as good as the day I met you
     Fm7                              Eb
I forget just why I left you, I was insane
Db                 Ab
Stay and play that Blink-182 song
        Fm7                       Eb
That we beat to death in Tuscon, okay

      Db    Ab    Fm7   Eb
e|----6-----11----8-----6-----------------------------------------|
B|----6-----13----9-----8-----------------------------------------|
G|----6-----13----8-----8-----------------------------------------|
D|----6-----13----10----8-----------------------------------------|
A|----4-----11----8-----6-----------------------------------------|
E|----------------------------------------------------------------|


[Pre-Chorus]

Db
I know it breaks your heart
Ab
Moved to the city in a broke down car
Fm7
And four years, no calls
Eb
Now you're looking pretty in a hotel bar
    Db      Ab
And I can't stop
    Fm7     Eb
No, I can't stop

      Db    Ab    Fm7   Eb
e|----6-----11----8-----6-----------------------------------------|
B|----6-----13----9-----8-----------------------------------------|
G|----6-----13----8-----8-----------------------------------------|
D|----6-----13----10----8-----------------------------------------|
A|----4-----11----8-----6-----------------------------------------|
E|----------------------------------------------------------------|


[Chorus]

   Db                         Ab 
So baby pull me closer in the backseat of your Rover
       Fm7
That I know you can't afford
          Eb
Bite that tattoo on your shoulder
         Db
Pull the sheets right off the corner
       Ab
Of the mattress that you stole
          Fm7
From your roommate back in Boulder
         Eb
We ain't ever getting older

      Db    Ab    Fm7   Eb
e|----6-----11----8-----6-----------------------------------------|
B|----6-----13----9-----8-----------------------------------------|
G|----6-----13----8-----8-----------------------------------------|
D|----6-----13----10----8-----------------------------------------|
A|----4-----11----8-----6-----------------------------------------|
E|----------------------------------------------------------------|


[Post-Chorus]

Db    Ab   Fm7          Eb
-instrumental- We ain't ever getting older
Db    Ab   Fm7          Eb
-instrumental- We ain't ever getting older

      Db    Ab    Fm7   Eb
e|----6-----11----8-----6-----------------------------------------|
B|----6-----13----9-----8-----------------------------------------|
G|----6-----13----8-----8-----------------------------------------|
D|----6-----13----10----8-----------------------------------------|
A|----4-----11----8-----6-----------------------------------------|
E|----------------------------------------------------------------|


[Chorus]

   Db                         Ab 
So baby pull me closer in the backseat of your Rover
       Fm7
That I know you can't afford
          Eb
Bite that tattoo on your shoulder
         Db
Pull the sheets right off the corner
       Ab
Of the mattress that you stole
          Fm7
From your roommate back in Boulder
         Eb
We ain't ever getting older
         Db                           Ab
We ain't ever getting older (we ain't ever getting older)
         Fm7                          Eb
We ain't ever getting older (we ain't ever getting older)
         Db                           Ab
We ain't ever getting older (we ain't ever getting older)
          Fm7                             Eb
(We ain't ever getting older) No we ain't ever getting older

      Db    Ab    Fm7   Eb
e|----6-----11----8-----6-----------------------------------------|
B|----6-----13----9-----8-----------------------------------------|
G|----6-----13----8-----8-----------------------------------------|
D|----6-----13----10----8-----------------------------------------|
A|----4-----11----8-----6-----------------------------------------|
E|----------------------------------------------------------------|

Db    Ab   Fm7          Eb
-instrumental- We ain't ever getting older
Db    Ab   Fm7          Eb
-instrumental- No we ain't ever getting older

            
            
Suggest correction
Creating personal tab
Creating personal tab
You can edit any tab online and save it as your Personal.

You can edit, replace or remove any tab part or add personal notes – all changes will be seen only by you.

Personal tabs can be accessed anytime from any device, even offline.
Learn more »
There is a new version of this tab from 1 day ago which you may like more. Go check it out:
comments
print report bad tab
guest
You may want to rate the tab now too:
select rating
Wanna post a correction for this tab? Suggest correction