Oops, an error
Loading. Please wait.

Closer Tab

version 3
version 3

Whole song

Interactive

Video

6,904 views 711 this week
no commentswrite comment
1 2 3 4 5
x 5
add to favorites
launch autoscroll
font size
0
reset
how to read this tab
guitar tuner
Autoscroll
slow
fast
+/-
esc
set tempo
stop
Help us to improve Ultimate-Guitar.com Take our survey!
×
Author
Difficulty
Capo
intermediate
1st fret
Hello! I found this excellent tutorial online for Closer, I highly 
recommend that you check it out,I decided to go ahead and TAB it due to the 
mass amounts of people asking in the comment section "Please tab this", I hope
that it serves you well, and I hope that you enjoy! (FIRST TAB EVER)

Video: "https://youtu.be/rIMiWchmsTs" 
Capo on 1st fret 
Standard Tuning 

It plays these three sections in the song over and over again.



e|----------------------------------------------------------------------|
B|---3----3-3--3-0-0----------3-3--3-0-5--------------------------------|
G|--------------------2-2-0------------2-2-0------s4--2-----------------|
D|-------------------------------------------0-h2-----------------------|
A|----------------------------------------------------------------------|
E|----------------------------------------------------------------------|


e|----3-3-3-5-5--3-3-3-3-3-3-5-5-3----10---7-----------------7----------|
B|-------------------------------------------10---8-------------10------|
G|--------------------------------------------------7-7--9--------------|
D|----------------------------------------------------------------------|
A|----------------------------------------------------------------------|
E|----------------------------------------------------------------------|

e|----------------------------------------------------------------------|
B|----8--10----10-12-8-10-10-8-8-12---12-8-8-10-10-8--------------------|
G|----------------------------------------------------------------------|
D|----------------------------------------------------------------------|
A|----------------------------------------------------------------------|
E|----------------------------------------------------------------------|


h: Hammer
s: slide



Suggest correction
There is a new version of this tab from 5 days ago which you may like more. Go check it out:
comments
print report bad tab
guest
You may want to rate the tab now too:
select rating
Wanna post a correction for this tab? Suggest correction