Oops, an error
Loading. Please wait.
We have Chord Pro version of Closer.
It's the closest thing you can get to the original song and it has interactive parts. Check out the tab »
×

Closer Tab

version 4
version 4

Whole song

Interactive

Video

4,825 views 60 this week
no commentswrite comment
1 2 3 4 5
x 7
add to favorites
launch autoscroll
font size
0
reset
how to read this tab
guitar tuner
Autoscroll
slow
fast
+/-
esc
set tempo
stop
Capo 2

Dadd4/F#
e|--3--|
B|--3--|
G|--2--|
D|--0--|    
A|--0--|
E|--2--|

It's up to you if you wanna play plucking or strumming. 
You can use plucking the whole song or you can add strumming.

[Intro]
      Cadd9    Dadd4/F#            Em7         Dadd4/F# 
e|-------------------------------------------------------------------------------------|
B|---3----3----3----3---------3----3----3----3----3---------3--------------------------|
G|---0---------2-------------------0---------2-----------------------------------------|
D|-------------------------------------------------------------------------------------|
A|---3-------------------0---------2-------------------0-------------------------------|
E|-------------3-----------------------------3-----------------------------------------|


      Cadd9    Dadd4/F#            Em7         Dadd4/F# 
e|-------------------------------------------------------------------------------------|
B|---3----3----3----3---------3----3----3----3----3---------3--------------------------|
G|---0---------2-------------------0---------2-----------------------------------------|
D|-------------------------------------------------------------------------------------|
A|---3-------------------0---------2-------------------0-------------------------------|
E|-------------3-----------------------------3-----------------------------------------|



[Verse1]
      Cadd9    Dadd4/F#            Em7         Dadd4/F# 
e|-------------------------------------------------------------------------------------|
B|---3----3----3----3---------3----3----3----3----3---------3--------------------------|
G|---0---------2-------------------0---------2-----------------------------------------|
D|-------------------------------------------------------------------------------------|
A|---3-------------------0---------2-------------------0-------------------------------|
E|-------------3-----------------------------3-----------------------------------------|
    Hey,            I was doing just fine before I met you


           Cadd9    Dadd4/F#            Em7         Dadd4/F# 
     e|-------------------------------------------------------------------------------------|
     B|---3----3----3----3---------3----3----3----3----3---------3--------------------------|
     G|---0---------2-------------------0---------2-----------------------------------------|
     D|-------------------------------------------------------------------------------------|
     A|---3-------------------0---------2-------------------0-------------------------------|
     E|-------------3-----------------------------3-----------------------------------------|
I drink too much and that's an issue but I’m okay

      Cadd9    Dadd4/F#            Em7         Dadd4/F# 
e|-------------------------------------------------------------------------------------|
B|---3----3----3----3---------3----3----3----3----3---------3--------------------------|
G|---0---------2-------------------0---------2-----------------------------------------|
D|-------------------------------------------------------------------------------------|
A|---3-------------------0---------2-------------------0-------------------------------|
E|-------------3-----------------------------3-----------------------------------------|
    Hey,           you tell your friends it was nice to meet them

        Cadd9    Dadd4/F#            Em7         Dadd4/F# 
  e|-------------------------------------------------------------------------------------|
  B|---3----3----3----3---------3----3----3----3----3---------3--------------------------|
  G|---0---------2-------------------0---------2-----------------------------------------|
  D|-------------------------------------------------------------------------------------|
  A|---3-------------------0---------2-------------------0-------------------------------|
  E|-------------3-----------------------------3-----------------------------------------|
But I hope I never see them again


Pre-Chorus Strumming : Cadd9 D  Em7  D
Chorus Strumming D. Same chords

You can also Play: Cadd9    Dadd4/F#            Em7         Dadd4/F# 
it's up to you which ones more comfortable for you to play
Suggest correction
comments
print report bad tab
guest
You may want to rate the tab now too:
select rating
Wanna post a correction for this tab? Suggest correction