Oops, an error
Loading. Please wait.
We have Chord Pro version of Closer.
It's the closest thing you can get to the original song and it has interactive parts. Check out the tab »
×

Closer tab

version 7
version 7

Whole song

Interactive

Video

4,669 views 27 this week
5 commentsread comments
1 2 3 4 5
x 11
add to favorites
×
Save as Personal and add changes to this tab that will be seen only by you. Learn more ›
×
You can save this tab as Personal to edit and correct it or add notes. All changes will be seen only by you. Learn more »
launch autoscroll
font size
0
reset
how to read this tab
guitar tuner
edit
Autoscroll
slow
fast
+/-
esc
set tempo
stop
Andrew Foy's arrangement
https://www.youtube.com/watch?v=yrzzEvK4Dh8
  
 [Intro]
e|--------------------0h2--4/5-3-3-5-5-3-3-5-5-3-3-5-5-3-3-5-----------------|
B|--3-----3/5--0------0----------------------0-------------------------------|
G|--0-----0---(0)----------------------------0-------------------------------|
D|--2--0-------------------------------0-------------------------------------|
A|--3----------------------2/3-----------------------------------------------|
E|-------------0---3-------------------------0---------3---------------------|

  [Verse]
   o        o               o               o            o           o
e|---------------------------------------------------------------------------|
B|-2/3----------------3--3--3-0-0-(0)-----------------3--3-0-0--(0)----------|
G|-0--------------0---0-----------(0)--2-2-----0----------------(0)--2--2/4--|
D|-1/2----------4----(0)-----------------------------------------------------|
A|-2/3--x---2/5-------x------------x--------------x------3-------x-----------|
E|------x-------------x-----0------x--------3-----x--------------x-----------|

               o        o              o                   o         o
e|---------------------------------------------------------------------------|
B|-------------2/3--------------(0)----2/3-----------------------2/3-3-0-0---|
G|--0-0-----2---------------0---(0)-2--0----------------------0--------------|
D|------------------------0-----(0)------------------------4-----------------|
A|-------x----------x------------x-----2/3---x--x--x--2/5-----x--------------|
E|-------x-----0----x---3--------x-----------x--x--x----------x------0-------|

                 o           o           o                   o
e|---------------------------------------------------------------------------|
B|--(0)-------------------0--0------------------------0------0---------------|
G|--(0)----2-2------0-----------2-----2--0-0-----(0)-----h2------------------|
D|-----------------------------------(0)-0----2--(0)-------------------------|
A|---x-----------------x-----3----3---x-----------x--------------x--x--x-----|
E|---x-----------3-----x--------------x-----------x----------0---x--x--x-----| 
    
                     [Pre chorus]
        o            o          o                  o               o
e|---------------------------------------------------------------------------|
B|---------------------------------------------------------------------------|
G|---------0--(0)--------------------------------------------(0)---0--0--2---|
D|------4-----(0)--------------------------------------------(0)---0---------|
A|-2/5-----x---x---------10--x--10-10-12-12--(10)--8/10-10----10-------------|
E|---------x---x---4/8-------x------------x----------------0--x----3---------|

           o           o                   o           o            o
e|---------------------------------------------------------------------------|
B|---------------------------------------------------------------------------|
G|--2--0-----------------------------------0--0-----0--0--2--2--0--3/7-------|
D|-(0)--------(0)--------------------12----0--------0--0----(0)--------------|
A|--x---------10---x--10--10h12--x-x-x--------------x--------x---------------|
E|--x----4/8-------x-------------x-x-x-----0-----0--x--3-----x------0--------|

                               o     o            o
e|---------------------------------------------------------------------------|
B|--------------------(0)---------------------------------------------(0)----|
G|-----------0--------(0)---2------------0-----0-3/7-----------0------(0)----|
D|--9--7-------0------(0)-0------------0--------------9--7-------0----(0)-0--|
A|-----x--5--------5---x----------x---------x------------x--5-------5--x-----|
E|-----x---------------x-------0--x--3------x-----0------x-------------x-----|

    o                      [Chorus]
e|---------------------------------------------------------------------------|
B|------------------------------<12>-----------------<12>--------------------|
G|--2--p0---------0-----0------------<12>------------------<12>--------------|
D|--------------0-----------<7>-------------<7>-<7>--------------<7>-<7>-----|
A|---------x---------x-------------------------------------------------------|
E|--0------x--3------x-------8-------------------10-------------------0------|

e|---------------------------------------------------------------------------|
B|-<12>--------------------------------<12>----------------------------------|
G|------<12>----------<12>----0------------<12>------------<12>--------------|
D|------------<7>-<7>--------0-----<7>------------<7>--<7>------<7>--<7>-----|
A|----------------10---------------------------------------------------------|
E|----------------------------------8-------------------10------------0------|

e|---------------------------------------------------------------------------|
B|-<12>------------------------------------0--(0)-------0--(0)--------0--(0)-|
G|------<12>----------<12>-------0----0h2-----(0)--2-2-----(0)--2--2-----(0)-|
D|-----------<7>--<7>-------------------------(0)--0-------(0)-----------(0)-|
A|-----------------10--------x--------3--------x------------x-------------x--|
E|---------------------------x-----------------x------------x------0------x--|

                   o           o              o            o            o
e|----------------------------------------------------------------3-3/5-5----|
B|---------(0)---------0--(0)------0--(0)-0---0-------(0)--------(0)---------|
G|-2-2--0--(0)--0--0h2----(0)--2-2----(0)--------0----(0)--2-2-0--2----------|
D|---------(0)------------(0)--0------(0)-------------(0)---------2----------|
A|----------x------3-------x-----------x---------------x----------x-----3----|
E|-3--------x--------------x-----------x------0----3---x---3------x----------|

            o                     o           o           o          o
e|-3----3---3/5--3/5--3--3---3/7--7--3----3---5-5-3--3--5-5--3----3--3/5-3/5-|
B|-----(0)--------------(0)--------------(0)--------(0)----------(0)---------|
G|-----(0)--------------(0)--------------(0)--------(0)----------(0)---------|
D|----------0----------------------------------------------------------------|
A|---3--x----------------x----------------x----------x----3----3--x----------|
E|------x----------------x--------0----0--x---3------x------------x----------|

              o            o                o             o
e|--3--3-------------------------(3)~-3/5---5--3-----3----3/5--3/5--3--3-----|
B|----(0)--0--0-------(0)--------(0)----------------(0)---------------(0)----|
G|----(0)--------0----(0)--2-2-0-(0)----------------(0)---------------(0)----|
D|--------------------(0)--------(0)----------------------0------------------|
A|-----x---------------x----------x---------3-----3--x-----------------x-----|
E|-----x------0-----3--x---3------x------------------x-----------------x-----|

        o           o           o           o                 o
e|-3/7--7--3----3---5-5-3--3--5-5--3-----3--3/5-3/5-3--3---------------------|
B|-------------(0)--------(0)-----------(0)-----------(0)--0--0--------(0)---|
G|-------------(0)--------(0)-----------(0)-----------(0)--------0-----(0)---|
D|---------------------------------------------------------------------(0)---|
A|--------------x----------x----3----3---x-------------x----------------x----|
E|------0----0--x---3------x-------------x-------------x------0-----3---x----|
              
                  [Verse]
    o              o         o               o               o           o
e|-----------------------------------------------------------------------0---|
B|----------(0)----2/3-----------------2/3-3-3-0-0-(0)----------------3------|
G|--2-2-0---(0)-0--0----------------0--0-----------(0)--2-2-----0------------|
D|----------(0)----1/2------------4---(0)------------------------------------|
A|-----------x-----2/3---x---2/5-------x------------x--------------x-----3---|
E|--3--------x-----------x-------------x-----0------x--------3-----x---------|

            o                o       o              o                   o   
e|---------------------------------------------------------------------------|
B|-0-0--(0)------------------2/3-------------(0)----2/3----------------------|
G|------(0)-2-2/4--0-0----2---------------0--(0)-2--0----------------------0-|
D|--------------------------------------0----(0)------------------------4----|
A|-------x-------------x----------x-----------x-----2/3---x--x--x--2/5-----x-|
E|-------x-------------x-----0----x--3--------x-----------x--x--x----------x-|
  
       o              o           o                o                  o
e|--------------------------------0------------------------------------------|
B|-2/3-3-0-0-(0)-----------(0)--3----0-0--(0)-----------------2/3------------|
G|-----------(0)--2-2----0-(0)------------(0)--2-2----0----2---------------0-|
D|----------------------------------------(0)------0---------------------0---|
A|------------x-------------x-----3--------x-------------x---------x---------|
E|-----0------x-------3-----x--------------x-------------x----0----x--3------|

          [Pre chorus]
           o       o              o           o            o          o
e|-------------3---3-3-3/5--5-----3-3-----3---3-3-5--5--3----------3--3-3-5--|
B|--(0)-------(0)----------(0)-----------(0)--0-----(0)-------(0)-(0)--------|
G|--(0)-2-----(0)----------(0)-----------(0)--------(0)-------(0)-(0)--------|
D|--(0)------------0-----------0--------------------------------------0------|
A|---x-----3---x------------x-------------x----------x-----3-------x---------|
E|---x---------x------------x-----0----0--x---3------x-------------x---------|

       o           o           o         o                   o       o
e|-5---3--3----3---3-3-5-5--3--5--5/7\5----3---------5/7--5------(5)-------3-|
B|(0)---------(0)--0----(0)----------(0)------3-----(0)-----------0--------0-|
G|(0)---------(0)-------(0)----------(0)------------(0)-----------0----------|
D|---------------------------------------0-------0----------------------0----|
A|-x-----------x---------x-----3------x--------------x------------x----------|
E|-x---0----0--x---3-----x------------x--------------x-------0----x--3-------|
                                                                  
                                                              [Chorus]
           o         o                  o            o
e|-----3---5-5/7\5------3-------5/7--5-----p3--------------------------------|
B|-(0)----------(0)-------3----(0)-------------(0)---------------------------|
G|-(0)----------(0)------------(0)-------------(0)--------0------0-----------|
D|-(0)---------------0-------0-----------------(0)-----0--------------<7>----|
A|--x------3-----x--------------x---------------x-------------x--------------|
E|--x------------x--------------x------0--------x---3---------x--------8-----|

e|---------------------------------------------------------------------------|
B|----<12>-----------------------<12>------------------------<12>------------|
G|-----------<12>----------------------<12>-------------------------<12>-----|
D|------------------<7>--<7>------------------<7>--<7>-----------------------|
A|---------------------------------------------------------------------------|
E|------------------------10------------------------0------------------------|

e|---------------------------------------------------------------------------|
B|---------------------------------<12>--------------------------------------|
G|---------------<12>-----0------------<12>------------<12>------------------|
D|----<7>-<7>------------0-----<7>------------<7>--<7>------<7>--<7>---------|
A|--------10-----------------------------------------------------------------|
E|------------------------------8-------------------10------------0----------|

e|---------------------------------------------------------------------------|
B|-<12>------------------------------------0--(0)-------0--(0)--------0--(0)-|
G|------<12>----------<12>-------0----0h2-----(0)--2-2-----(0)--2--2-----(0)-|
D|-----------<7>--<7>-------------------------(0)--0-------(0)-----------(0)-|
A|-----------------10--------x--------3--------x------------x-------------x--|
E|---------------------------x-----------------x------------x------0------x--|

                   o           o              o            o            o
e|----------------------------------------------------------------3-3/5-5----|
B|---------(0)---------0--(0)------0--(0)-0---0-------(0)--------(0)---------|
G|-2-2--0--(0)--0--0h2----(0)--2-2----(0)--------0----(0)--2-2-0--2----------|
D|---------(0)------------(0)--0------(0)-------------(0)---------2----------|
A|----------x------3-------x-----------x---------------x----------x-----3----|
E|-3--------x--------------x-----------x------0----3---x---3------x----------|

            o                     o           o           o          o
e|-3----3---3/5--3/5--3--3-----7--7--3----3---5-5-3--3--5-5--3----3--3/5-3/5-|
B|-----(0)--------------(0)--------------(0)--------(0)----------(0)---------|
G|-----(0)--------------(0)--------------(0)--------(0)----------(0)---------|
D|----------0----------------------------------------------------------------|
A|---3--x----------------x----------------x----------x----3----3--x----------|
E|------x----------------x--------0----0--x---3------x------------x----------|

              o            o                o             o
e|--3--3-------------------------(3)~-3/5---5--3-----3----3/5--3/5--3--3-----|
B|----(0)--0--0-------(0)--------(0)----------------(0)---------------(0)----|
G|----(0)--------0----(0)--2-2-0-(0)----------------(0)---------------(0)----|
D|--------------------(0)--------(0)----------------------0------------------|
A|-----x---------------x----------x---------3-----3--x-----------------x-----|
E|-----x------0-----3--x---3------x------------------x-----------------x-----|

        o           o           o           o                 o
e|---7--7--3----3---5-5-3--3--5-5--3-----3--3/5-3/5-3--3---------------------|
B|-------------(0)--------(0)-----------(0)-----------(0)--0--0--------(0)---|
G|-------------(0)--------(0)-----------(0)-----------(0)--------0-----(0)---|
D|---------------------------------------------------------------------(0)---|
A|--------------x----------x----3----3---x-------------x----------------x----|
E|------0----0--x---3------x-------------x-------------x------0-----3---x----|
              
    o              o         o               o               o           o
e|-----------------------------------------------------------------------0---|
B|----------(0)----2/3-----------------2/3-3-3-0-0-(0)----------------3------|
G|--2-2-0---(0)-0--0----------------0--0-----------(0)--2-2-----0------------|
D|----------(0)----1/2------------4---(0)------------------------------------|
A|-----------x-----2/3---x---2/5-------x------------x--------------x-----3---|
E|--3--------x-----------x-------------x-----0------x--------3-----x---------|

   [Outro]
e|--------------------0h2--4/5-3-3-5-5-3-3-5-5/7-3-3-5-5-3-3-5---------------|
B|--3-----3/5--0------0----------------------0----------(0)------------------|
G|--0-----0---(0)----------------------------0----------(0)------------------|
D|--2--0-------------------------------0----------------(0)------------------|
A|--3----------------------2/3--------------------------(0)------------------|
E|-------------0---3-------------------------0-----------3-------------------|

************************************

| x   Dead note
| (n) Ghost note
| h   Hammer-on
| p   Pull-off
| r   Release
| <>  Natural harmonic
| o   Wrist thump


************************************
Suggest correction
Creating personal tab
Creating personal tab
You can edit any tab online and save it as your Personal.

You can edit, replace or remove any tab part or add personal notes – all changes will be seen only by you.

Personal tabs can be accessed anytime from any device, even offline.
Learn more »
comments
print report bad tab
5 comments total. Showing first comments.
+1 reply
bluen34 42 Dec 10, 2016 09:31 PM

amazing! thanks

+1 reply
mk2781 24 Apr 02, 2017 09:40 AM

thank you so much for these tabs!!

+1 reply
mk2781 24 Apr 02, 2017 09:40 AM

btw what does <7> mean?

guest
You may want to rate the tab now too:
select rating
Wanna post a correction for this tab? Suggest correction