Oops, an error
Loading. Please wait.
We have Chord Pro version of Closer.
It's the closest thing you can get to the original song and it has interactive parts. Check out the tab »
×

Closer tab

version 8
version 8

Whole song

Interactive

Video

652 views 15 this week
no commentswrite comment
1 2 3 4 5
3 more votes to show rating
add to favorites
×
Save as Personal and add changes to this tab that will be seen only by you. Learn more ›
×
You can save this tab as Personal to edit and correct it or add notes. All changes will be seen only by you. Learn more »
launch autoscroll
font size
0
reset
how to read this tab
guitar tuner
edit
Autoscroll
slow
fast
+/-
esc
set tempo
stop
About this tab version
Fully structured tab with song timings, easy to follow. Was this info helpful? Yes No
=============================================
Video Lesson to accompany this tab:
https://www.youtube.com/watch?v=05ytNwHwGTQ
=============================================
CAPO on FRET 1
==========================

[CHORDS USED]
   Cadd9     D      Em7
e|---3---|---2---|---3---|
B|---3---|---3---|---3---|
G|---0---|---2---|---0---|
D|---2---|---0---|---2---|
A|---3---|-------|---2---|
E|-------|-------|---0---|

[INTRO]
0.00 - 0.09
e|-3-----------2-----|-3-----------2-----|
B|-3-----------3-----|-3-----------3-----|
G|-0-----------2-----|-0-----------2-----| x1
D|-2-----------0-----|-2-----------0-----|
A|-3-----------------|-2-----------------|
E|-------------------|-0-----------------|

[VERSE]
(stop notes ringing out)
0.10 - 0.29
"Hey, I was doing just fine before I met you..."
e|-3-----------2-2---|-3-----------2-2-2-|
B|-3-----------3-3---|-3-----------3-3-3-|
G|-0-----------2-2---|-2-----------2-2-2-| x4
D|-2-----------0-0---|-2-----------0-0-0-|
A|-3-----------------|-0-----------------|
E|-------------------|-------------------|

[PRE-CHORUS]
0.30 - 0.49
"I know it breaks your heart, moved to the city in a broke down car..."
e|-3--3-x--3---2-2---|-3--3-x--3---2-2-2-|
B|-3--3-x--3---3-3---|-3--3-x--3---3-3-3-|
G|-0--0-x--0---2-2---|-2--2-x--2---2-2-2-| x4
D|-2--2-x--2---0-0---|-2--2-x--2---0-0-0-|
A|-3--3-x--3---------|-0--0-x--0---------|
E|------x------------|------x------------|

[CHORUS]
(same as INTRO - let notes ring)
0.50 - 1.09
"So baby pull me closer in the backseat of your Rover..."
e|-3-----------2-----|-3-----------2-----|
B|-3-----------3-----|-3-----------3-----|
G|-0-----------2-----|-0-----------2-----| x4
D|-2-----------0-----|-2-----------0-----|
A|-3-----------------|-2-----------------|
E|-------------------|-0-----------------|

[DANCE BREAK]
(same as VERSE - stop notes ringing out)
1.10 - 1.30
"...older...we ain't ever getting older..."
GUITAR 1
e|-3-----------2-2---|-3-----------2-2-2-|
B|-3-----------3-3---|-3-----------3-3-3-|
G|-0-----------2-2---|-2-----------2-2-2-| x4
D|-2-----------0-0---|-2-----------0-0-0-|
A|-3-----------------|-0-----------------|
E|-------------------|-------------------|

GUITAR 2
e|---------------------|---------------------|
B|-11-11-9-9-11-11-9-9-|-13-13-9-9-11-11-9-9-|
G|---------------------|---------------------| x4
D|---------------------|---------------------|
A|---------------------|---------------------|
E|---------------------|---------------------|

[VERSE]
(stop notes ringing out)
1.31 - 1.50
"You look as good as the day I met you..."
e|-3-----------2-2---|-3-----------2-2-2-|
B|-3-----------3-3---|-3-----------3-3-3-|
G|-0-----------2-2---|-2-----------2-2-2-| x4
D|-2-----------0-0---|-2-----------0-0-0-|
A|-3-----------------|-0-----------------|
E|-------------------|-------------------|

[PRE-CHORUS]
1.51 - 2.10
"I know it breaks your heart, moved to the city in a broke down car..."
e|-3--3-x--3---2-2---|-3--3-x--3---2-2-2-|
B|-3--3-x--3---3-3---|-3--3-x--3---3-3-3-|
G|-0--0-x--0---2-2---|-2--2-x--2---2-2-2-| x4
D|-2--2-x--2---0-0---|-2--2-x--2---0-0-0-|
A|-3--3-x--3---------|-0--0-x--0---------|
E|------x------------|------x------------|

[CHORUS]
(same as INTRO - let notes ring)
2.11 - 2.31
"So baby pull me closer in the backseat of your Rover..."
e|-3-----------2-----|-3-----------2-----|
B|-3-----------3-----|-3-----------3-----|
G|-0-----------2-----|-0-----------2-----| x4
D|-2-----------0-----|-2-----------0-----|
A|-3-----------------|-2-----------------|
E|-------------------|-0-----------------|

[DANCE BREAK]
(same as VERSE - stop notes ringing out)
2.32 - 2.51
"...older...we ain't ever getting older..."
GUITAR 1
e|-3-----------2-2---|-3-----------2-2-2-|
B|-3-----------3-3---|-3-----------3-3-3-|
G|-0-----------2-2---|-2-----------2-2-2-| x4
D|-2-----------0-0---|-2-----------0-0-0-|
A|-3-----------------|-0-----------------|
E|-------------------|-------------------|

GUITAR 2
e|---------------------|---------------------|
B|-11-11-9-9-11-11-9-9-|-13-13-9-9-11-11-9-9-|
G|---------------------|---------------------| x4
D|---------------------|---------------------|
A|---------------------|---------------------|
E|---------------------|---------------------|

[CHORUS]
(same as INTRO - let notes ring)
2.52 - 3.32
"So baby pull me closer in the backseat of your Rover..."
e|-3-----------2-----|-3-----------2-----|
B|-3-----------3-----|-3-----------3-----|
G|-0-----------2-----|-0-----------2-----| x8
D|-2-----------0-----|-2-----------0-----|
A|-3-----------------|-2-----------------|
E|-------------------|-0-----------------|

[DANCE BREAK]
(same as VERSE - stop notes ringing out)
2.32 - 3.53
"...older...we ain't ever getting older..."
GUITAR 1
e|-3-----------2-2---|-3-----------2-2-2-|
B|-3-----------3-3---|-3-----------3-3-3-|
G|-0-----------2-2---|-2-----------2-2-2-| x4
D|-2-----------0-0---|-2-----------0-0-0-|
A|-3-----------------|-0-----------------|
E|-------------------|-------------------|

GUITAR 2
e|---------------------|---------------------|
B|-11-11-9-9-11-11-9-9-|-13-13-9-9-11-11-9-9-|
G|---------------------|---------------------| x4
D|---------------------|---------------------|
A|---------------------|---------------------|
E|---------------------|---------------------|

[OUTRO]
(same as INTRO)
3.54 - To End
e|-3-----------2-----|-3-----------2-----|
B|-3-----------3-----|-3-----------3-----|
G|-0-----------2-----|-0-----------2-----| x1
D|-2-----------0-----|-2-----------0-----|
A|-3-----------------|-2-----------------|
E|-------------------|-0-----------------|

e|-3-----------2-----|-3-----------------|
B|-3-----------3-----|-3-----------------|
G|-0-----------2-----|-0-----------------| x1
D|-2-----------0-----|-2-----------------|
A|-3-----------------|-2-----------------|
E|-------------------|-0-----------------|

***********************************

| x   Dead note

***********************************
Suggest correction
Creating personal tab
Creating personal tab
You can edit any tab online and save it as your Personal.

You can edit, replace or remove any tab part or add personal notes – all changes will be seen only by you.

Personal tabs can be accessed anytime from any device, even offline.
Learn more »
Give kudos to tab author, rate the tab!
1 2 3 4 5
comments
print report bad tab
guest
You may want to rate the tab now too:
select rating
Wanna post a correction for this tab? Suggest correction