Oops, an error
Loading. Please wait.

Dont Let Me Down Tab

version 3
version 3

Whole song

  • There are some differences/a bit more detail and a... Show more

Interactive

Video

265 views 36 this week
no commentswrite comment
1 2 3 4 5
x 3
add to favorites
launch autoscroll
font size
0
reset
how to read this tab
guitar tuner
Autoscroll
slow
fast
+/-
esc
set tempo
stop
Help us to improve Ultimate-Guitar.com Take our survey!
×
Author
About this tab version
There are some differences/a bit more detail and accuracy in the riffs, the chords are explained, it comes with the complete lyrics. Was this info helpful? Yes No
[Riff 1]
  E                B                F#               G#m
e|----------------|11----11----11--|----------------|----------------|
B|9-----9-----7---|----------------|11----11----11--|11/12-12----11--|
G|----------------|----------------|----------------|----------------|
D|----------------|----------------|----------------|----------------|
A|----------------|----------------|----------------|----------------|
E|----------------|----------------|----------------|----------------|

[Intro: 2x Riff 1] 0:00 - 0:11

[Verse 1: 4x Riff 1] 0:11 - 0:36
Crashing, hit a wall
Right now I need a miracle
Hurry up now, I need a miracle
Stranded, reaching out
I call your name but you're not around
I say your name but you're not around


[Riff 2]
  E                B                F#               G#m
e|----------------|----------------|----------------|----------------|
B|----------------|----------------|----------------|----------------|
G|----------------|8-----8-----8---|----------------|----------------|
D|6-----6-----4---|----------------|8-----8-----8---|8/9---9-----8---|
A|----------------|----------------|----------------|----------------|
E|----------------|----------------|----------------|----------------|

[Riff 3]
  E                B                F#               G#m
e|----------------|----------------|----------------|----------------|
B|----------------|----------------|----------------|----------------|
G|----------------|8-----8-----8---|----------------|----------------|
D|6-----6-----4---|----------------|8-----8-----8---|9---------------|
A|----------------|----------------|----------------|----------------|
E|----------------|----------------|----------------|----------------|

[Chorus: 3x Riff 2, 1x Riff 3] 0:36 - 0:59
I need you, I need you, I need you right now
Yeah, I need you right now
So don't let me, don't let me, don't let me down
I think I'm losing my mind now
It's in my head, darling I hope
That you'll be here, when I need you the most
So don't let me, don't let me, don't let me down
D-Don't let me down

[Chords 1]
  G#m             G#m
e|-4-|-4-|-4-|-4-|---|---|---|---|
B|-4-|-4-|-4-|-4-|---|---|---|---|
G|-4-|-4-|-4-|-4-|-4-|-4-|-4-|-4-|
D|-6-|-6-|-6-|-6-|-6-|-6-|-6-|-6-|
A|---|---|---|---|-6-|-6-|-6-|-6-|
E|---|---|---|---|-4-|-4-|-4-|-4-|

[Post-Chorus: 1x Chords 1] 0:59 - 1:11
Don't let me down
Don't let me down, down, down
Don't let me down, don’t let me down, down, down

[Verse 2: 2x Riff 1] 1:11 - 1:23
R-r-running out of time
I really thought you were on my side
But now there's nobody by my side

[Chorus: 3x Riff 2, 1x Riff 3] 1:23 - 1:47
I need you, I need you, I need you right now
Yeah, I need you right now
So don't let me, don't let me, don't let me down
I think I'm losing my mind now
It's in my head, darling I hope
That you'll be here, when I need you the most
So don't let me, don't let me, don't let me down
D-Don't let me down

[Post-Chorus: 2x Chords 1] 1:47 - 2:11
Don't let me down
Don't let me down, down, down
Don't let me down, down, down
Don't let me down, down, down
Don't let me down, don’t let me down, down, down

[Chords 2]
   E   B   F# G#m
e|---|---|---|---|
B|-9-|---|---|---|
G|-9-|-8-|-3-|-4-|
D|-9-|-9-|-4-|-6-|
A|-7-|-9-|-4-|-6-|
E|---|-7-|-2-|-4-|

[Bridge: 2x Chords 2] 2:11 - 2:23
Oh, I think I’m losing my mind now, yeah, yeah, yeah
Oh, I think I’m losing my mind now, yeah, yeah

[Chords 3]
   E   B   F# G#m
e|---|---|---|---|
B|---|---|---|---|
G|-9-|-11|-11|-13|
D|-9-|-9-|-11|-13|
A|---|---|---|---|
E|---|---|---|---|

[Chorus: 4x Chords 3] 2:23 - 2:47
I need you, I need you, I need you right now
Yeah, I need you right now
So don't let me, don't let me, don't let me down
I think I'm losing my mind now
It's in my head, darling I hope
That you'll be here, when I need you the most
So don't let me, don't let me, don't let me down
Don't let me down

[Chords 4]
   E   B   F# G#m
e|---|---|---|---|
B|---|-4-|---|---|
G|-1-|-4-|-3-|-4-|
D|-2-|-4-|-4-|-6-|
A|-2-|-2-|-4-|-6-|
E|-0-|---|-2-|-4-|

[Outro: 6x Chords 4] 2:47 - 3:28
Yeah, don't let me down
Yeah, don't let me down
Don't let me down, oh no
Said don't let me down
Don't let me down
Don't let me down
Don't let me down, down, down

************************************

| /   Slide up

************************************
Suggest correction
Give kudos to tab author, rate the tab!
1 2 3 4 5
comments
print report bad tab
guest
You may want to rate the tab now too:
select rating
Wanna post a correction for this tab? Suggest correction