Oops, an error
Loading. Please wait.

Paris tab

version 1
version 1

Whole song

  • Full fingerstyle arrangement by Andrew Foy.
  • Fully structured with song timings, easy to follow.

Video

  • High quality video with on screen tab, easy to follow.
13,612 views 57 this week
2 commentsread comments
1 2 3 4 5
x 4
add to favorites
×
Save as Personal and add changes to this tab that will be seen only by you. Learn more ›
×
You can save this tab as Personal to edit and correct it or add notes. All changes will be seen only by you. Learn more »
launch autoscroll
font size
0
reset
how to read this tab
guitar tuner
edit
Autoscroll
slow
fast
+/-
esc
set tempo
stop
Author
Capo 2

[Verse 1: Andrew Taggart]
e|------------3----3-------------------|
B|--1----1----3----3-------------------|
G|--2----2----0----0-------------------|
D|--3----2----0----2-------------------| (x4)
A|--3----0----2----2-------------------|
E|-------------------------------------|

We were staying in Paris
To get away from your parents
And I thought "Wow, if I could take this in a shot right now
I don't think that we could work this out"

[Pre-Chorus 1: Andrew Taggart]
e|------------3----3-------------------|
B|--1----1----3----3-------------------|
G|--2----2----0----0-------------------|
D|--3----2----0----2-------------------| (x4)
A|--3----0----2----2-------------------|
E|-------------------------------------|

Out on the terrace
I don't know if it's fair but I thought "How could I let you fall by yourself
While I'm wasted for someone else"

[Chorus: Andrew Taggart & unconfirmed artist]
e|------------3----3-------------------|
B|--1----1----3----3-------------------|
G|--2----2----0----0-------------------|
D|--3----2----0----2-------------------| (x4)
A|--3----0----2----2-------------------|
E|-------------------------------------|

If we go down then we go down together
They'll say you could do anything
They'll say that I was clever
If we go down then we go down together

e|--3-3-3-3---0--0-----3-3-3-3---0--0-------|
B|--3-3-3-3---1--1-----3-3-3-3---1--3-------|
G|--0-0-0-0---0--0-----0-0-0-0---0--2-------|
D|------------------------------------------| (x2)
A|------------------------------------------|
E|------------------------------------------|

We'll get away with everything
Let's show them we are better
Let's show them we are better
Let's show them we are better

[Verse 2: Andrew Taggart]
e|------------3----3-------------------|
B|--1----1----3----3-------------------|
G|--2----2----0----0-------------------|
D|--3----2----0----2-------------------| (x4)
A|--3----0----2----2-------------------|
E|-------------------------------------|

We were staying in Paris
To get away from your parents
And you're so proud standing there with the flower and the cigarette
Posting pictures of yourself on the internet

[Pre-Chorus 2: Andrew Taggart]
e|------------3----3-------------------|
B|--1----1----3----3-------------------|
G|--2----2----0----0-------------------|
D|--3----2----0----2-------------------| (x4)
A|--3----0----2----2-------------------|
E|-------------------------------------|

Out on the terrace
I don't live in the area of this small town
On our own couldn't pass for the thrill of it
Getting drunk on the bus we were living in

[Chorus: Andrew Taggart & unconfirmed artist]
e|------------3----3-------------------|
B|--1----1----3----3-------------------|
G|--2----2----0----0-------------------|
D|--3----2----0----2-------------------| (x4)
A|--3----0----2----2-------------------|
E|-------------------------------------|

If we go down then we go down together
They'll say you could do anything
They'll say that I was clever
If we go down then we go down together
We'll get away with everything
Let's show them we are better

[Post-Chorus: Andrew Taggart & unconfirmed artist]
e|--3-3-3-3---0--0-----3-3-3-3---0--0-------|
B|--3-3-3-3---1--1-----3-3-3-3---1--3-------|
G|--0-0-0-0---0--0-----0-0-0-0---0--2-------|
D|------------------------------------------| (x2)
A|------------------------------------------|
E|------------------------------------------|

Let's show them we are
Let's show them we are
Let's show them we are
Let's show them we are
Let's show them we are better
We were staying in Paris

e|--3-3-3-3---0--0------3-3-3-3--0---0-0-0-----------|
B|--3-3-3-3---1--3------3-3-3-3--1---3-1-3-----------|
G|--0-0-0-0---0--2------0-0-0-0--0---2-2-2-----------|
D|---------------------------------------------------| (x4)
A|---------------------------------------------------|
E|---------------------------------------------------|

Let's show them we are better
Let's show them we are
Let's show them we are
Let's show them we are
Let's show them we are
Let's show them we are better

[Chorus: Andrew Taggart & unconfirmed artist]
e|------------3----3-------------------|
B|--1----1----3----3-------------------|
G|--2----2----0----0-------------------|
D|--3----2----0----2-------------------| (x4)
A|--3----0----2----2-------------------|
E|-------------------------------------|

If we go down then we go down together
They'll say you could do anything
They'll say that I was clever
If we go down then we go down together
We'll get away with everything
Let's show them we are better

[Bridge: Andrew Taggart & unconfirmed artist]
e|--3-3-3-3---0--0-----3-3-3-3---0--0-------|
B|--3-3-3-3---1--1-----3-3-3-3---1--3-------|
G|--0-0-0-0---0--0-----0-0-0-0---0--2-------|
D|------------------------------------------| (x2)
A|------------------------------------------|
E|------------------------------------------|

We were staying in Paris (If we go down)
We were staying in Paris (If we go down)
We were staying in Paris (If we go down)
We were staying in Paris (If we go down)
Let's show them we are better

e|--3-3-3-3---0--0------3-3-3-3--0---0-0-0-----------|
B|--3-3-3-3---1--3------3-3-3-3--1---3-1-3-----------|
G|--0-0-0-0---0--2------0-0-0-0--0---2-2-2-----------|
D|---------------------------------------------------| (x8)
A|---------------------------------------------------|
E|---------------------------------------------------|

We were staying in Paris
Let's show them we are better
Let's show them we are better
If we go down
Let's show them we are better
If we go down
Let's show them we are better
If we go down
Let's show them we are better
Let's show them we are better

            
            
Suggest correction
Creating personal tab
Creating personal tab
You can edit any tab online and save it as your Personal.

You can edit, replace or remove any tab part or add personal notes – all changes will be seen only by you.

Personal tabs can be accessed anytime from any device, even offline.
Learn more »
comments
print report bad tab
2 comments total.
+1 reply
u2rager8 10 Jan 18, 2017 04:25 PM

unconfirmed artist is Emily warren just so you guys know!

0 reply
Guitarist121212 44 May 26, 2017 06:08 AM

didn't like this contribution

guest
You may want to rate the tab now too:
select rating
Wanna post a correction for this tab? Suggest correction