Oops, an error
Loading. Please wait.

Paris tab

version 2
version 2

Whole song

  • Full fingerstyle arrangement by Andrew Foy.
  • Fully structured with song timings, easy to follow.

Video

  • High quality video with on screen tab, easy to follow.
2,752 views 69 this week
1 commentread comment
1 2 3 4 5
x 4
add to favorites
×
Save as Personal and add changes to this tab that will be seen only by you. Learn more ›
×
You can save this tab as Personal to edit and correct it or add notes. All changes will be seen only by you. Learn more »
launch autoscroll
font size
0
reset
how to read this tab
guitar tuner
edit
Autoscroll
slow
fast
+/-
esc
set tempo
stop
About this tab version
Full fingerstyle arrangement by Andrew Foy. Was this info helpful? Yes No
Andrew Foy's Arrangement
https://www.youtube.com/watch?v=QqI4stBZJOI

[Intro]
e|----------------------------------<15>-------------------------------------|
B|------<13>--------<12>---------<12>------------<15>------------------------|
G|---<14>---------<13>---------<12>------------<12>--------------------------|
D|-<15>---------<14>---------<12>------------<14>----------------------------|
A|------------<14>---------<14>------------<14>------------------------------|
E|---------------------------------------------------------------------------|

[Verse]
                 o      o  o        o        o      o       o    o       o
e|---------------------------------------------------------------------------|
B|---------------------------------------------------------------------------|
G|---------------------------------------------------------------------------|
D|-0-0--0-0-0-0----------------0-0-----0-0-0-0---------0h2--0----0---0-------|
A|------------------3---------------------------3---3----------3---3---------|
E|---------------1---------------------------5--------------5------------3---|

            o   o    o       o        o   o   o               o  o        o
e|---------------------------------------------------------------------------|
B|---------------------------------------------------------------------------|
G|------------------------0--------------------------------------------------|
D|----0---0-----0----0----0-------0---0---0---0-0-0-0----------------0-0-----|
A|--3---3---3------3---3--------3---3---3---3-------------3------------------|
E|--------------3------------0------------0------------1---------------------|

         o     o       o    o       o         o  o   o      o        o  o     
e|---------------------------------------------------------------------------|
B|---------------------------------------------------------------------------|
G|-------------------------------------------------------0-------------------|
D|-0-0-0-0--------0h2--0----0---0-------0---0----0---0---0------0---0---0h2--|
A|----------3--3----------3---3-------3---3---3----3---3------3---3---3-----x|
E|-------5-------------5------------3------------3----------0-----------0---x|
     
[Chorus]
e|------0--------------------------------------------------------------------|
B|-1-1--------1h3--1-------------------------3-1-3--1--3/5-3-----1--3--1-3---|
G|---2--------2----2--5-9\7---5--7p5-----5\--0----------------------0--------|
D|---3--------------------------------------------------------------0--------|
A|------x----------x--0---x---0-------x--0-------x------------x----------x---|
E|---1--x--1-------x------x-----------x------3---x--3---------x-----0----x---|

e|------------------0--------------------------------------------------------|
B|-3/5-3p1-----1-1--------1h3-1-----------------------3-1-3--1-3/5--3-----1--|
G|---------------2--------2---2-5-9\7--5--7p5-----5\--0----------------------|
D|---------------3-----------------------------------------------------------|
A|----------x-------x---------x-0---x--0-------x--0-------x------------x-----|
E|-0--------x----1--x--1------x-----x----------x------3---x--3---------x-----|

e|-------------------3-3-3-3-----0-----------------------------------3-3-3-3-|
B|-3-1-3--3/5--3p1---1-1-1-1--------3---------3--1-3--1--3-3/5--3p1--1-1-1-1-|
G|-0-----------------2-2-2-2--------2----(2)--2----0-----------------0-0-0-0-|
D|-0-----------------3-3-3-3--3----(3)-3-(3)-(3)---------------------0-0-0-0-|
A|-----x-------------x---x----------x---------x----0-----x-----------x---x---|
E|-0---x--0----------x---x----------x---------x----------x-0---------x---x---|

e|----0----------------------------------------------------------------------|
B|-------3----------3-1-3-1-3--3/5-3p1---------------------------------------|
G|-------0----------0---0----------------------------------------------------|
D|-------0-----(0)--0---0----------------------------------------------------|
A|-------x----------x-------x------------------------------------------------|
E|-3-----x--3-------x---0---x--0---------------------------------------------|

[Verse] 
            o        o               o          o             o
e|---------------------------------------------------------------------------|
B|---------------------------------------------------------------------------|
G|---------------------------------------------------------------------------|
D|--0-0-0-0--------------0-0---0-0-0-------0h2--0-----0----0-------0---0--0--|
A|-------------3--x----------x---------3-3---------3--x--3-------3---3-x-----|
E|----------1-----x----------x-------1---x------5-----x-------3--------x-----|

      o              o                           o       o              o
e|---------------------------------------------------------------------------|
B|---------------------------------------------------------------------------|
G|---------------------------------------------------------------------------|
D|----0h2p0---0-0-0----0---0-0---0h2p0---0-0-0-0------------0-0---0-0-0------|
A|--3---------x------3---3-x---3--------------------3-x---------x----------3-|
E|----3-------x------------x-----0---------------1----x---------x--------1---|
          o            o             o               o          o
e|---------------------------------------------------------------------------|
B|---------------------------------------------------------------------------|
G|------------------------------------------0-0-0----------------------------|
D|----0h2-0----0----0-0---0---0--0---0h2p0-----------0h2--0-0---0------------|
A|--3--------3-x--3-----3---3-x----3--------x-------------x---3---3-3---x----|
E|--x-----5----x--------------x------3------x------0------x-----0-------x----|

[Chorus]
e|------0--------------------------------------------------------------------|
B|-1-1--------1h3--1-------------------------3-1-3--1--3/5-3-----1--3--1-3---|
G|---2--------2----2--5-9\7---5--7p5-----5\--0----------------------0--------|
D|---3--------------------------------------------------------------0--------|
A|------x----------x--0---x---0-------x--0-------x------------x----------x---|
E|---1--x--1-------x------x-----------x------3---x--3---------x-----0----x---|

e|------------------0--------------------------------------------------------|
B|-3/5-3p1-----1-1--------1h3-1-----------------------3-1-3--1-3/5--3-----1--|
G|---------------2--------2---2-5-9\7--5--7p5-----5\--0----------------------|
D|---------------3-----------------------------------------------------------|
A|----------x-------x---------x-0---x--0-------x--0-------x------------x-----|
E|-0--------x----1--x--1------x-----x----------x------3---x--3---------x-----|

e|---------------------------------------------------------------------------|
B|-3-1-3--3/5--3p1-----------------------------------------------------------|
G|-0-------------------------------------------------------------------------|
D|-0-------------------------------------------------------------------------|
A|-----x---------------------------------------------------------------------|
E|-0---x--0------------------------------------------------------------------|

[Post-Chorus]
e|---------------------------------------------------------------------------|
B|---------------------------------------------------------3----3---------3--|
G|--5-5h7-5----5h7-5--------7-5--5h7-5-----7-5-7\4-----------5----4-------0--|
D|----------------------7--------5-------------------------------------0--0--|
A|----8------8--------8---8------0-----0-0------------5----------------------|
E|--------------------------------------------------3---3-------3----3----0--|

e|---------------------------------------------3-3-3-3-----0-----------------|
B|-1-3-3/5-3p1--3-3----3-----1----<15>-<13>----1-1-1-1-----1----<15>-<13>----|
G|--------------2-2----2-----2-----------------2-2-2-2-----2-----------------|
D|--------------3-3----3--3--------3--------3--3-3-3-3-----------------------|
A|--------------x----x----------x--------------x---x----0-----x--0---------0-|
E|-----0--------x----x----------x--------------x---x----------x--------------|

e|--3-3-3-3------0------------------0----------------------------------------|
B|--1-1-1-1------1--<15>-<13>-------1-----3-1--3-3/5-3p1----1--1h3--1----1h3-|
G|--0-0-0-0------0------------------0-----0--------------------2---------2---|
D|----------------------------------0--0--0--------------------3------3--3---|
A|--x---x---------------------------x----------x----------x--------------x---|
E|--x---x-----3------3----------3---x-----3----x-0--------x--------------x---|

e|---------------------------------------------------------------------------|
B|-1----------3-1--3-1---------3-1-3--0----------3--1--3--0--------3-1-3--3/5|
G|------2----------0-----------0------0-------------0-----0--------0------0--|
D|----3---3--------2-----------2-----------0--------------------0--0---------|
A|------------x----0---0--x-0------x-------------x-----------x---------x-----|
E|------------x-----------x--------x-----3----3--x--0--------x-----0---x--0--|

e|---------------------------------------------------------------------------|
B|-3p1--------5--------------5----------------3----3---3h5-3----3-1-3-3/5-3p1|
G|-0----5--5---------7-5--5-----7-5-7p5----5--5--5---5-------5--0------------|
D|------------------------5--------------7----5-----------------0------------|
A|---------8-----8--------0--------------------------------------------------|
E|--------------------------------------------3-----------------0------------|

e|---------3-----------3-0---------------------------------------------------|
B|----1--1-------3--1--1---3--1-3p1---1--3-1-3-1-3/5-3-1--3-1-3-3/5-3p1------|
G|--2----2-------------0------------0----0----------------0------------------|
D|-------3----3--------------------------0----------------0------------------|
A|---------------------0-----------------------------------------------------|
E|---------------------------------------3----------------0------------------|

[Bridge]
e|-0-0-0-0--------3------3------3-------3------3-------3------3------3-------|
B|-1-1-1-1-------1------1------1-------1------1-------1------1------1--------|
G|-0-0-0-0h2----2------2------2-------2------0-------0------0------0---------|
D|-------------3-------------3-----------------------------------------------|
A|-x---x-------------x-------------x--------0-----x--------0-----x-----------|
E|-x---x-------------x-------------x--------------x--------------x-----------|

e|----3-------3-----3--------------------------------0-----0---------3------3|
B|---1-------1-----1--------1-----1h3-1-3--3/5--3p1--1--1--1--1-----1------1-|
G|--0-------0-----0-------0---0---0--------0---------0--0--0--0----2------2--|
D|------------------------------------------------------0-----0---3----------|
A|--------x-------------x---------------x------------x-----x------------x----|
E|-3------x------3------x---------0-----x--0---------x-----x------------x----|

e|----3-----3-----3------3------3-------3------3--------3------3-------------|
B|---1-----1-----1------1------1-------1------1--------1------1---------1----|
G|--2-----2-----0------0------0-------0------0--------0------0--------0---0--|
D|-3-------------------------------------------------------------------------|
A|------x------0-----x-------0------x--------------x---------------x---------|
E|------x------------x--------------x-------3------x--------3------x---------|

e|---------------------------------------------------------------------------|
B|-1h3-1-3-3/5-3p1-----------------------------------------------------------|
G|-0-------0-----------------------------------------------------------------|
D|---------------------------------------------------------------------------|
A|-------x-----------x-------------------------------------------------------|
E|-0-----x-0---------x-------------------------------------------------------|

[Outro]
e|--------3----8----8----3------3----8----8----3-----------------------------|
B|--------1----5----0----0------1----5----0----0-----------------------------|
G|--(0)---2----5----0----0------2----5----0----0-----------------------------|
D|--------3---------------------3--------------------------------------------|
A|-------------0---------------------0---------------------------------------|
E|------------------3----0----------------3----0-----------------------------|

************************************

| x   Dead note
| (n) Ghost note
| h   Hammer-on
| p   Pull-off
| /   Slide up
| \   Slide down
| o   Wrist thump
|<->  Harmonic

************************************

            
            
Suggest correction
Creating personal tab
Creating personal tab
You can edit any tab online and save it as your Personal.

You can edit, replace or remove any tab part or add personal notes – all changes will be seen only by you.

Personal tabs can be accessed anytime from any device, even offline.
Learn more »
comments
print report bad tab
1 comment total.
0 reply
gluck 10 Aug 04, 2017 12:00 PM

In proces this song!!!

guest
You may want to rate the tab now too:
select rating
Wanna post a correction for this tab? Suggest correction