Oops, an error
Loading. Please wait.

Roses tab

version 1
version 1

Whole song

Interactive

14,095 views 87 this week
no commentswrite comment
1 2 3 4 5
x 5
add to favorites
×
Save as Personal and add changes to this tab that will be seen only by you. Learn more ›
×
You can save this tab as Personal to edit and correct it or add notes. All changes will be seen only by you. Learn more »
launch autoscroll
font size
0
reset
how to read this tab
guitar tuner
edit
Autoscroll
slow
fast
+/-
esc
set tempo
stop
Author
Difficulty
                           
                       
                        Roses By: The Chainsmokers and ROZEZ
                                   Tabs by: CXC




[Intro]


e|2-0--4-4-4-4-4-4-4--0--2-2-2-2-2-2-2--0--4-4-4-4-4-4-4--0--2-2-2-2-2-2-2--0-|
B|0-0--5-5-5-5-5-5-5--0--0-0-0-0-0-0-0--0--5-5-5-5-5-5-5--0--0-0-0-0-0-0-0--0-|
G|----------------------------------------------------------------------------|
D|----------------------------------------------------------------------------|
A|----------------------------------------------------------------------------|
E|----------------------------------------------------------------------------|
 Palm Muted...................................................................

[Verse]

          Take it slow but it's not typical      
e|--4-4-4-4-4-4-4--0--2-2-2-2-2-2-2--0--|
B|--5-5-5-5-5-5-5--0--0-0-0-0-0-0-0--0--|
G|--------------------------------------|
D|--------------------------------------|
A|--------------------------------------|
E|--------------------------------------|
 Palm Muted ............................

         
         He already knows that my love is fire

e|--4-4-4-4-4-4-4--0--2-2-2-2-2-2-2--0--|
B|--5-5-5-5-5-5-5--0--0-0-0-0-0-0-0--0--|
G|--------------------------------------|
D|--------------------------------------|
A|--------------------------------------|
E|--------------------------------------|
 Palm Muted ............................


        His heart was a stone but then his hands roam 

e|--4-4-4-4-4-4-4--0--2-2-2-2-2-2-2--0--|
B|--5-5-5-5-5-5-5--0--0-0-0-0-0-0-0--0--|
G|--------------------------------------|
D|--------------------------------------|
A|--------------------------------------|
E|--------------------------------------|
 Palm Muted ............................


       I turned him to gold and it took him higher

e|--4-4-4-4-4-4-4--0--2-2-2-2-2-2-2--0--|
B|--5-5-5-5-5-5-5--0--0-0-0-0-0-0-0--0--|
G|--------------------------------------|
D|--------------------------------------|
A|--------------------------------------|
E|--------------------------------------|
 Palm Muted ............................


 But I'll be your day-dream, I'll be your

e|--4-4-4-4-4-4-4--0--2-2-2-2-2-2-2--0--|
B|--5-5-5-5-5-5-5--0--0-0-0-0-0-0-0--0--|
G|--------------------------------------|
D|--------------------------------------|
A|--------------------------------------|
E|--------------------------------------|
 Palm Muted ............................


    Favorite things   We could be beautiful,

e|--4-4-4-4-4-4-4--0--2-2-2-2-2-2-2--0--|
B|--5-5-5-5-5-5-5--0--0-0-0-0-0-0-0--0--|
G|--------------------------------------|
D|--------------------------------------|
A|--------------------------------------|
E|--------------------------------------|
 Palm Muted ............................
 

       Get drunk on the good life I'll take you to 

e|--4-4-4-4-4-4-4--0--2-2-2-2-2-2-2--0--|
B|--5-5-5-5-5-5-5--0--0-0-0-0-0-0-0--0--|
G|--------------------------------------|
D|--------------------------------------|
A|--------------------------------------|
E|--------------------------------------|
 Palm Muted ............................
 

    Paradise       Say you'll never let me go! 

e|--4-4-4-4-4-4-4--0--2-2-2-2-2-2-2--0--|
B|--5-5-5-5-5-5-5--0--0-0-0-0-0-0-0--0--|
G|--------------------------------------|
D|--------------------------------------|
A|--------------------------------------|
E|--------------------------------------|
 Palm Muted ............................


[Chorus]


    Deep in my bones I can feel you Take me back to a time when we knew hideaway

e|--4---------------------------------------5-----------------------------------0----------------|
B|--5---------------------------------------5-----------------------------------0---------4------|
G|--6---------------------------------------6-----------------------------------1---------4------|
D|--6---------------------------------------7-----------------------------------2---------4------|
A|--4---------------------------------------7-----------------------------------2---------2------|
E|------------------------------------------5-----------------------------------0----------------|


  We could wait the night with an old film Smoke a little weed on my couch in the back room hideaway
                                                                           Say you'll never let me go
e|--4-----------------------------------------------------5------------------------------0---------|
B|--5-----------------------------------------------------5------------------------------0-----4---|
G|--6-----------------------------------------------------6------------------------------1-----4---|
D|--6-----------------------------------------------------7------------------------------2-----4---|
A|--4-----------------------------------------------------7------------------------------2-----2---|
E|--------------------------------------------------------5------------------------------0---------|

    Say you'll never let me go   (Synth riffs basically follow this Lyric Phrase in different patterns)

e|--4-----------------------------------------------------5----------------------------0---------|
B|--5-----------------------------------------------------5----------------------------0-----4---|
G|--6-----------------------------------------------------6----------------------------1-----4---|
D|--6-----------------------------------------------------7----------------------------2-----4---|
A|--4-----------------------------------------------------7----------------------------2-----2---|
E|--------------------------------------------------------5----------------------------0---------|

[Bridge And Outro] (Uses different synth effects)(Fills follow a 5th higher) Say you'll never let me go

e|-----------------------------------------------------------------------------------------------|
B|-----------------------------------------------------------------------------------------------|
G|---9---9---13--9-----6--8--9--9--8--8---8---------------9---9---13--9-----6--8--9--9--8--8-----| Loop
D|---9---9---9---11----7--9--7--7--7--11--9---------------9---9---9---11----7--9--7--7--7--9-----|
A|---11--11--11--11----7--9--9--9--9--9---9---------------11--11--11--11----7--9--9--9--9--9-----|
E|---------------9-----5--7--7--7--7--7---7---------------------------9-----5--7--7--7--7--7-----|




********************************************************************************************************

            
            
Suggest correction
Creating personal tab
Creating personal tab
You can edit any tab online and save it as your Personal.

You can edit, replace or remove any tab part or add personal notes – all changes will be seen only by you.

Personal tabs can be accessed anytime from any device, even offline.
Learn more »
comments
print report bad tab
guest
You may want to rate the tab now too:
select rating
Wanna post a correction for this tab? Suggest correction