Oops, an error
Loading. Please wait.

Roses Tab

version 2
version 2

Whole song

Interactive

229 views 21 this week
no commentswrite comment
1 2 3 4 5
2 more votes to show rating
add to favorites
launch autoscroll
font size
0
reset
how to read this tab
guitar tuner
Autoscroll
slow
fast
+/-
esc
set tempo
stop
Help us to improve Ultimate-Guitar.com Take our survey!
×
Author
Difficulty
intermediate
Roses
The Chainsmokers 

[Intro & Verse]
e|--0-0-0-4-4-4-4-4-4-4-4-2-2-2-2-2--------------|
B|--5-5-5-5-5-5-5-5-5-5-5-5-5-5-5-5--------------|
G|-----------------------------------------------|
D|-----------------------------------------------| x10
A|-----------------------------------------------|
E|-----------------------------------------------|

Take it slow but it's not typical
He already knows that my love is fire
His heart was a stone, but then his hands roam.
I turned him to gold and it took him higher.
But I'll be your day-dream, I'll wear your favorite things
We could be beautiful, get drunk on the good life
I'll take you to Paradise, 
Say you'll never let me go! 

[Pre-Chorus]
e|---------------------------------------------------------------|
B|-----5---------------------------------------------------------|
G|-----6-----6-----1---------------------------------------------|
D|-----6-----7-----2-2-2-2-2-2-2-2-2-2-2-2-2-2-2-4-4-4-4-4-4-4---| x2
A|-----4-----7-----2---------------------------------------------|
E|-----------5-----0---------------------------------------------|

Deep in my bones I can feel you
Take me back to a time when we knew hideaway
We could waste the night with an old film
Smoke a little weed on my couch in the back room Hideaway! 
Say you'll never let me go

e|-------------------------------------------------|
B|-------------------------------------------------|
G|-------------------------------------------------|
D|--11-9-9-----------------------------------------| x 3
A|---------11-11-9-7--7-7-7-7-9-9-9-9-9-9-7--------|
E|-------------------------------------------------|


Say you'll never let me go.
Say you'll never let me go! 
Say you'll never let me go! 

e|-------------------------------------------------|
B|-------------------------------------------------|
G|-------------------------------------------------|
D|--11-9-9-----------------------------------------|
A|---------11-11-9-7--7-7-7-7-7-7-7-7-7------------|
E|-------------------------------------------------|

Say you'll never let me go! 

[Instrumental] 
e|-------------------------------------------------|
B|-------------------------------------------------|
G|--9--9--13--9---8-9--9-9-9-8-8-------------------|
D|--9--9---9--11--9-9--9-9-9-9-9-------------------|
A|--11-11-11--11--9-7--7-7-7-7-7-------------------|
E|----------------7--------------------------------|
Ahh ahh ahh 
e|-------------------------------------------------|
B|-------------------------------------------------|
G|--9--9--13--9---8-9--9-9-9-9---------------------|
D|--9--9---9--11--9-9--9-9-9-9---------------------|
A|--11-11-11--11--9-7--7-7-7-7---------------------|
E|----------------7--------------------------------|
Ahh ahh ahh 
e|------------------------------------------------|
B|------------------------------------------------|
G|---9--13--9---8-9--9--9-8-----------------------|
D|---9---9--11--9-9--9--9-9-----------------------|
A|---11-11--11--9-7--7--7-7-----------------------|
E|--------------7---------------------------------|
Ahh ahh ahh
e|-------------------------------------------------|
B|-------------------------------------------------|
G|--9--9--13--9---8-9--9-9-9-9---------------------|
D|--9--9---9--11--9-9--9-9-9-9---------------------|
A|--11-11-11--11--9-7--7-7-7-7---------------------|
E|----------------7--------------------------------|


Say you'll never let me go!
e|-------------------------------------------------|
B|-------------------------------------------------|
G|--9--9--13--9---8-9--9-9-9-8-8-------------------|
D|--9--9---9--11--9-9--9-9-9-9-9-------------------|
A|--11-11-11--11--9-7--7-7-7-7-7-------------------|
E|----------------7--------------------------------|

e|-------------------------------------------------|
B|-------------------------------------------------|
G|--9--9--13--9---8-9--9-9-9-9---------------------|
D|--9--9---9--11--9-9--9-9-9-9---------------------|
A|--11-11-11--11--9-7--7-7-7-7---------------------|
E|----------------7--------------------------------|

e|------------------------------------------------|
B|------------------------------------------------|
G|---9--13--9---8-9--9--9-8-----------------------|
D|---9---9--11--9-9--9--9-9-----------------------|
A|---11-11--11--9-7--7--7-7-----------------------|
E|--------------7---------------------------------|

e|-------------------------------------------------|
B|-------------------------------------------------|
G|--9--9--13--9---8-9--9-9-9-9---------------------|
D|--9--9---9--11--9-9--9-9-9-9---------------------|
A|--11-11-11--11--9-7--7-7-7-7---------------------|
E|----------------7--------------------------------|

[Pre-Chorus]
e|---------------------------------------------------------------|
B|-----5---------------------------------------------------------|
G|-----6-----6-----1---------------------------------------------|
D|-----6-----7-----2-2-2-2-2-2-2-2-2-2-2-2-2-2-2-4-4-4-4-4-4-4---| x2
A|-----4-----7-----2---------------------------------------------|
E|-----------5-----0---------------------------------------------|

Deep in my bones I can feel you
Take me back to a time when we knew hideaway
We could wait the night with an old film
Smoke a little weed on my couch in the backroom, 
hideaway
Say you'll never let me go
Say you'll never let me go.

e|-------------------------------------------------|
B|-------------------------------------------------|
G|-------------------------------------------------|
D|--11-9-9-----------------------------------------| x 3
A|---------11-11-9-7--7-7-7-7-9-9-9-9-9-9-7--------|
E|-------------------------------------------------|


Say you'll never let me go.
Say you'll never let me go! 
Say you'll never let me go! 

e|-------------------------------------------------|
B|-------------------------------------------------|
G|-------------------------------------------------|
D|--11-9-9-----------------------------------------|
A|---------11-11-9-7--7-7-7-7-7-7-7-7-7------------|
E|-------------------------------------------------|

Say you'll never let me go! 

[Instrumental] 
e|-------------------------------------------------|
B|-------------------------------------------------|
G|--9--9--13--9---8-9--9-9-9-8-8-------------------|
D|--9--9---9--11--9-9--9-9-9-9-9-------------------|
A|--11-11-11--11--9-7--7-7-7-7-7-------------------|
E|----------------7--------------------------------|
Ahh ahh ahh 
e|-------------------------------------------------|
B|-------------------------------------------------|
G|--9--9--13--9---8-9--9-9-9-9---------------------|
D|--9--9---9--11--9-9--9-9-9-9---------------------|
A|--11-11-11--11--9-7--7-7-7-7---------------------|
E|----------------7--------------------------------|
Ahh ahh ahh 
e|------------------------------------------------|
B|------------------------------------------------|
G|---9--13--9---8-9--9--9-8-----------------------|
D|---9---9--11--9-9--9--9-9-----------------------|
A|---11-11--11--9-7--7--7-7-----------------------|
E|--------------7---------------------------------|
Ahh ahh ahh
e|-------------------------------------------------|
B|-------------------------------------------------|
G|--9--9--13--9---8-9--9-9-9-9---------------------|
D|--9--9---9--11--9-9--9-9-9-9---------------------|
A|--11-11-11--11--9-7--7-7-7-7---------------------|
E|----------------7--------------------------------|
 
Say you'll never let me go!
e|-------------------------------------------------|
B|-------------------------------------------------|
G|--9--9--13--9---8-9--9-9-9-8-8-------------------|
D|--9--9---9--11--9-9--9-9-9-9-9-------------------|
A|--11-11-11--11--9-7--7-7-7-7-7-------------------|
E|----------------7--------------------------------|

e|-------------------------------------------------|
B|-------------------------------------------------|
G|--9--9--13--9---8-9--9-9-9-9---------------------|
D|--9--9---9--11--9-9--9-9-9-9---------------------|
A|--11-11-11--11--9-7--7-7-7-7---------------------|
E|----------------7--------------------------------|

e|------------------------------------------------|
B|------------------------------------------------|
G|---9--13--9---8-9--9--9-8-----------------------|
D|---9---9--11--9-9--9--9-9-----------------------|
A|---11-11--11--9-7--7--7-7-----------------------|
E|--------------7---------------------------------|

e|-------------------------------------------------|
B|-------------------------------------------------|
G|--9--9--13--9---8-9--9-9-9-9---------------------|
D|--9--9---9--11--9-9--9-9-9-9---------------------|
A|--11-11-11--11--9-7--7-7-7-7---------------------|
E|----------------7--------------------------------| 
Suggest correction
Give kudos to tab author, rate the tab!
1 2 3 4 5
comments
print report bad tab
guest
You may want to rate the tab now too:
select rating
Wanna post a correction for this tab? Suggest correction