Oops, an error
Loading. Please wait.

The One tab

version 1
version 1

Whole song

  • Fully structured tab, song timings, easy to follow.
  • Fingerstyle arrangement by LetsPlayGuitar for The One by The Chainsmokers.

Video

  • High quality video lesson, on screen tab, easy to follow.
814 views 12 this week
no commentswrite comment
1 2 3 4 5
3 more votes to show rating
add to favorites
×
Save as Personal and add changes to this tab that will be seen only by you. Learn more ›
×
You can save this tab as Personal to edit and correct it or add notes. All changes will be seen only by you. Learn more »
launch autoscroll
font size
0
reset
how to read this tab
guitar tuner
edit
Autoscroll
slow
fast
+/-
esc
set tempo
stop
About this tab version
Fully structured tab, song timings, easy to follow. Was this info helpful? Yes No
Video lesson to acompany this tab:
https://www.youtube.com/watch?v=UCl_JrFh7y8

[Chords]
     Bm      G       D       A
e|---0---|---3---|---2---|-------|
B|---3---|---3---|---3---|---2---|
G|---2---|---0---|---2---|---2---|
D|---0---|---0---|---0---|---2---|
A|---2---|---2---|-------|---0---|
E|-------|---3---|-------|-------|

[Intro]
(0.00 - 0.19)
e|--0---0---3---3--|--2---2---2---2--|
B|--3---3---3---3--|--3---3---3---3--|
G|--2---2---0---0--|--2---2---2---2--| (x4)
D|--0---0---0---0--|--0---0---0---0--|
A|--2---2---2---2--|-----------------|
E|----------3---3--|-----------------|

[Verse]
(0.20 - 0.39)
"You know, I'm sorry, I won't make it to your party..."
e|--0---0---3---3--|--2---2---2---2--|
B|--3---3---3---3--|--3---3---3---3--|
G|--2---2---0---0--|--2---2---2---2--| (x4)
D|--0---0---0---0--|--0---0---0---0--|
A|--2---2---2---2--|-----------------|
E|----------3---3--|-----------------|

[Pre-Chorus]
(0.40 - 0.54)
"Down and down we go..."
e|-0---0-0-3---3-3-|-2---2---2---2-2-|
B|-3---3-3-3---3-3-|-3---3---3---3-3-|
G|-2---2-2-0---0-0-|-2---2---2---2-2-| (x3)
D|-0---0-0-0---0-0-|-0---0---0---0-0-|
A|-2---2-2-2---2-2-|-----------------|
E|---------3---3-3-|-----------------|

[Chorus]
(0.55 - 1.03)
"I won't be the one..."
e|-3---3-3---------|-0---0---0---0-0-|
B|-3---3-3-2---2-2-|-3---3---3---3-3-|
G|-0---2-2-2---2-2-|-2---2---2---2-2-| (x1)
D|-0---0-0-2---2-2-|-0---0---0---0-0-|
A|-2---2-2-0---0-0-|-2---2---2---2-2-|
E|-3---3-3---------|-----------------|

e|-3---3-3---------|-2---------------|
B|-3---3-3-2---2-2-|-2---------------|
G|-0---2-2-2---2-2-|-2---------------| (x1)
D|-0---0-0-2---2-2-|-0---------------|
A|-2---2-2-0---0-0-|-----------------|
E|-3---3-3---------|-----------------|

[Verse]
(1.04 - 1.22)
"I know it's pathetic..."
e|--0---0---3---3--|--2---2---2---2--|
B|--3---3---3---3--|--3---3---3---3--|
G|--2---2---0---0--|--2---2---2---2--| (x4)
D|--0---0---0---0--|--0---0---0---0--|
A|--2---2---2---2--|-----------------|
E|----------3---3--|-----------------|

[Pre-Chorus]
(1.23 - 1.37)
"Down and down we go..."
e|-0---0--0-0-|-3---3--3-3-|-2---2--2-2-|-2---2--2-2-|
B|-3---3--3-3-|-3---3--3-3-|-3---3--3-3-|-3---3--3-3-|
G|-2---2--2-2-|-0---0--0-0-|-2---2--2-2-|-2---2--2-2-| (x3)
D|-0---0--0-0-|-0---0--0-0-|-0---0--0-0-|-0---0--0-0-|
A|-2---2--2-2-|-2---2--2-2-|------------|------------|
E|------------|-3---3--3-3-|------------|------------|
   D   D  D U   D   D  D U   D   D  D U   D   D  D U

[Chorus 2]
(1.38 - 1.47)
"I won't be the one..."
e|-3---3--3-3-|------------|-0---0--0-0-|-0---0--0-0-|
B|-3---3--3-3-|-2---2--2-2-|-3---3--3-3-|-3---3--3-3-|
G|-0---0--0-0-|-2---2--2-2-|-2---2--2-2-|-2---2--2-2-| (x1)
D|-0---0--0-0-|-2---2--2-2-|-0---0--0-0-|-0---0--0-0-|
A|-2---2--2-2-|-0---0--0-0-|-2---2--2-2-|-2---2--2-2-|
E|-3---3--3-3-|------------|------------|------------|
   D   D  D U   D   D  D U   D   D  D U   D   D  D U

e|-3---3--3-3-|------------|-2----------|------------|
B|-3---3--3-3-|-2---2--2-2-|-2----------|------------|
G|-0---0--0-0-|-2---2--2-2-|-2----------|------------| (x1)
D|-0---0--0-0-|-2---2--2-2-|-0----------|------------|
A|-2---2--2-2-|-0---0--0-0-|------------|------------|
E|-3---3--3-3-|------------|------------|------------|
   D   D  D U   D   D  D U   D

[Bridge 1]
(1.48 - 2.19)
e|----------------|-----------------|
B|----------------|-----------------|
G|----------------|-----------------| (x8)
D|----------7--7--|-4--4--4--6/7----|
A|-5--5--5--------|---------------7-|
E|----------------|-----------------|

[Bridge 2]
(2.20 - 2.24)
"No, I won't be the one..."
e|-0----------|-3----------|-2----------|------------|
B|-3----------|-3----------|-3----------|------------|
G|-2----------|-0----------|-2----------|------------| (x1)
D|-0----------|-0----------|-0----------|------------|
A|-2----------|-2----------|------------|------------|
E|------------|-3----------|------------|------------|

[Outro 1]
(2.25 - 2.44)
e|-2-2---2-2---2-|-0-0---0-0-----|
B|-3-3---3-3---3-|-3-3---3-3---2-|
G|-2-2---2-2---2-|-2-2---2-2---2-| (x4)
D|-0-0---0-0---0-|-0-0---0-0---2-|
A|---------------|-2-2---2-0---0-|
E|---------------|---------------|

[Outro 2]
(2.45 - To End)
e|----------------|-----------------|
B|----------------|-----------------|
G|----------------|-----------------| (x2)
D|----------7--7--|-4--4--4--6/7----|
A|-5--5--5--------|---------------7-|
E|----------------|-----------------|



************************************

| /   Slide up
| D   Down strum
| U   Up strum

************************************



************************************

| /  Slide up

************************************

            
            
Suggest correction
Creating personal tab
Creating personal tab
You can edit any tab online and save it as your Personal.

You can edit, replace or remove any tab part or add personal notes – all changes will be seen only by you.

Personal tabs can be accessed anytime from any device, even offline.
Learn more »
Give kudos to tab author, rate the tab!
1 2 3 4 5
comments
print report bad tab
guest
You may want to rate the tab now too:
select rating
Wanna post a correction for this tab? Suggest correction