Oops, an error
Loading. Please wait.

The One tab

version 2
version 2

Whole song

  • Fully structured tab, song timings, easy to follow.
  • Fingerstyle arrangement by LetsPlayGuitar for The One by The Chainsmokers.

Video

  • High quality video lesson, on screen tab, easy to follow.
112 views 6 this week
no commentswrite comment
1 2 3 4 5
3 more votes to show rating
add to favorites
×
Save as Personal and add changes to this tab that will be seen only by you. Learn more ›
×
You can save this tab as Personal to edit and correct it or add notes. All changes will be seen only by you. Learn more »
launch autoscroll
font size
0
reset
how to read this tab
guitar tuner
edit
Autoscroll
slow
fast
+/-
esc
set tempo
stop
About this tab version
Fingerstyle arrangement by LetsPlayGuitar for The One by The Chainsmokers. Was this info helpful? Yes No
******************************************************************************
                                 Name: The One
                            Artist: The Chainsmokers
                          Album: Memories...Do Not Open
itunes: https://itunes.apple.com/us/album/memories-do-not-open/id1207120422
                               Standard Tuning
                                Capo 2nd fret
          video lesson: https://www.youtube.com/watch?v=woZ2ezuUtWY
              lyrics: https://www.youtube.com/watch?v=38AQ1WWeNro
*******************************************************************************

[Intro]
           Am           F            C  
e|--0--|-----------|--1---1----|--0----------------|
B|--1--|--1---1----|-----------|------1---1---1----|
G|-----|----2---2--|----2---2--|----0---0---0---0--|
D|-----|-----------|-----------|-------------------|
A|-----|--0---0----|--3---3----|--3-------3--------|
E|-----|-----------|-----------|-------------------|

      Am          F            C                  
e|-----------|-----------|---------------|--0--|
B|--1---1----|--3---3----|--1---1---1----|-----|
G|----2---2--|-----------|----0---0---0--|-----|
D|-----------|----3---3--|---------------|-----|
A|--0---0----|--3---3----|--3-------3----|-----|
E|-----------|-----------|---------------|-----|

       Am           F            C  
e|-----------|--1---1----|--0----------------|
B|--1---1----|-----------|------1---1---1----|
G|----2---2--|----2---2--|----0---0---0---0--|
D|-----------|-----------|-------------------|
A|--0---0----|--3---3----|--3-------3--------|
E|-----------|-----------|-------------------|

      Am          F            C                  
e|-----------|-----------|-------------|
B|--1---1----|--3---3----|--1---1---1--|
G|----2---2--|-----------|----0---0----|
D|-----------|----3---3--|-------------|
A|--0---0----|--3---3----|--3----------|
E|-----------|-----------|-------------|

[Verse 1]

You know, I'm sorry ...
e|----------------|-----------0------|-----------0------|-----------0------|
B|--3-3/5--3-3-1--|----3-3-3----3-1--|----3-3-3----3-1--|----3-3-3----3p1--|
G|----------------|--0---------------|--0---------------|--0---------------|
D|----------------|------------------|------------------|------------------|
A|----0-----------|----3--------3----|----0-------------|----3--------3----|
E|-----------1----|------------------|-------------1----|------------------|

e|----------------|-----------0------|-----------0------|-----------0------|
B|--3-3/5--3-3-1--|----3-3-3----3-1--|----3-3-3----3-1--|----3-3-3----3p1--|
G|----------------|--0---------------|--0---------------|--0---------------|
D|----------------|------------------|------------------|------------------|
A|----0-----------|----3--------3----|----0-------------|----3--------3----|
E|-----------1----|------------------|-------------1----|------------------|

down and down we go...
e|-----------------|-----------|------------------|-----------|
B|--1-0------------|--------1--|-----1-0-------1--|--------1--|
G|-------2--0h2-0--|------0----|----------2--0----|------0----|
D|-----------------|----2------|--2---------------|----2------|
A|--0--------------|--3--------|-----0------------|--3--------|
E|-------1---------|-----------|----------1-------|-----------|

e|-------0-------|-----------|
B|--1--1---------|--1-0-3----|
G|----------2-0--|--------0--|
D|---------------|-----------|
A|-----0---------|--3---3----|
E|----------1----|-----------|
I won't be the one... No, I won't be the one
e|----0-------0--|------0------0--|
B|--1----3-1--1--|--1-1--3--1--1--|
G|--2------------|----2-----------|
D|---------------|----------------|
A|--0---------3--|----0--------3--|
E|-------1-------|-------1--------|
I know it's pathetic ...
e|----------------|-----------0------|-----------0------|-----------0------|
B|--3-3/5--3-3-1--|----3-3-3----3-1--|----3-3-3----3-1--|----3-3-3----3p1--|
G|----------------|--0---------------|--0---------------|--0---------------|
D|----------------|------------------|------------------|------------------|
A|----0-----------|----3--------3----|----0-------------|----3--------3----|
E|-----------1----|------------------|-------------1----|------------------|

e|----------------|-----------0------|-----------0------|-----------0------|
B|--3-3/5--3-3-1--|----3-3-3----3-1--|----3-3-3----3-1--|----3-3-3----3p1--|
G|----------------|--0---------------|--0---------------|--0---------------|
D|----------------|------------------|------------------|------------------|
A|----0-----------|----3--------3----|----0-------------|----3--------3----|
E|-----------1----|------------------|-------------1----|------------------|

down and down we go...
e|-----------------|-----------|------------------|-----------|
B|--1-0------------|--------1--|-----1-0-------1--|--------1--|
G|-------2--0h2-0--|------0----|----------2--0----|------0----|
D|-----------------|----2------|--2---------------|----2------|
A|--0--------------|--3--------|-----0------------|--3--------|
E|-------1---------|-----------|----------1-------|-----------|

e|-------0-------|-----------|
B|--1--1---------|--1-0-3----|
G|----------2-0--|--------0--|
D|---------------|-----------|
A|-----0---------|--3---3----|
E|----------1----|-----------|
I won't be the one...
e|----0-------0--|------0------0--|
B|--1----3-1--1--|--1-1--3--1--1--|
G|--2------------|----2-----------|
D|---------------|----------------|
A|--0---------3--|----0--------3--|
E|-------1-------|-------1--------|

[Breakdown]

   Am         F       C
e|---------|--3-3--|--0-0-0--|--3-3--|
B|--1-1-1--|--1-1--|--1-1-1--|--1-1--|
G|--2-2-2--|--2-2--|---------|-------|
D|---------|--3-3--|---------|-------|
A|--0-0-0--|-------|--3-3-3--|--3-3--|
E|---------|-------|---------|-------|

     Am         F       C
e|-----------|--3-3--|--0-0---0--|--3-3--|
B|--1-1---1--|--1-1--|--1-1---1--|--1-1--|
G|--2-2---2--|--2-2--|-----------|-------|
D|------x----|--3-3--|------x----|-------|
A|--0---x-0--|-------|--3---x-3--|--3-3--|
E|------x----|-------|------x----|-------|

   Am         F       C
e|---------|--3-3--|--0-0-0--|--3-3--|
B|--1-1-1--|--1-1--|--1-1-1--|--1-1--|
G|--2-2-2--|--2-2--|---------|-------|
D|---------|--3-3--|---------|-------|
A|--0-0-0--|-------|--3-3-3--|--3-3--|
E|---------|-------|---------|-------|

     Am         F       C
e|-----------|--3-3--|--0-0---0--|--3-3--|
B|--1-1---1--|--1-1--|--1-1---1--|--1-1--|
G|--2-2---2--|--2-2--|-----------|-------|
D|------x----|--3-3--|------x----|-------|
A|--0---x-0--|-------|--3---x-3--|--3-3--|
E|------x----|-------|------x----|-------|
No, I won't be the one
    Am   F           C
e|----0-------0--|------0------0--|
B|--1----3-1--1--|--1-1--3--1--1--|
G|--2------------|----2-----------|
D|---------------|----------------|
A|--0---------3--|----0--------3--|
E|-------1-------|-------1--------|

   Am         F       C
e|---------|--3-3--|--0-0-0--|--3-3--|
B|--1-1-1--|--1-1--|--1-1-1--|--1-1--|
G|--2-2-2--|--2-2--|---------|-------|
D|---------|--3-3--|---------|-------|
A|--0-0-0--|-------|--3-3-3--|--3-3--|
E|---------|-------|---------|-------|

     Am         F       C
e|-----------|--3-3--|--0-0---0--|--3-3--|
B|--1-1---1--|--1-1--|--1-1---1--|--1-1--|
G|--2-2---2--|--2-2--|-----------|-------|
D|------x----|--3-3--|------x----|-------|
A|--0---x-0--|-------|--3---x-3--|--3-3--|
E|------x----|-------|------x----|-------|

No, I won't be the one
e|----0-------0--|------0------0--|
B|--1----3-1--1--|--1-1--3--1--1--|
G|--2------------|----2-----------|
D|---------------|----------------|
A|--0---------3--|----0--------3--|
E|-------1-------|-------1--------|

***********************************
| /   Slide up
| h   Hammer-on
| p   Pull-off
| x   Mute/Dead Notes
***********************************

            
            
Suggest correction
Creating personal tab
Creating personal tab
You can edit any tab online and save it as your Personal.

You can edit, replace or remove any tab part or add personal notes – all changes will be seen only by you.

Personal tabs can be accessed anytime from any device, even offline.
Learn more »
Give kudos to tab author, rate the tab!
1 2 3 4 5
comments
print report bad tab
guest
You may want to rate the tab now too:
select rating
Wanna post a correction for this tab? Suggest correction