Oops, an error
Loading. Please wait.

Until You Were Gone tab

919 views 1 this week
no commentswrite comment
1 2 3 4 5
x 3
add to favorites
×
Save as Personal and add changes to this tab that will be seen only by you. Learn more ›
×
You can save this tab as Personal to edit and correct it or add notes. All changes will be seen only by you. Learn more »
launch autoscroll
font size
0
reset
how to read this tab
guitar tuner
edit
Autoscroll
slow
fast
+/-
esc
set tempo
stop
This is my first tab, kind of played it by ear. Feel free to suggest any changes.
Capo on 6th. You can repeat the intro in the background throughout the song. 

[Intro]

e|---------------------------------------------------------------------------|
B|---------------------------------------------------------------------------|
G|---------------------------------------------------------------------------|
D|---------------0-------------------------------0---------------------------|
A|-----------------------2-------------------------------2-------------------|
E|---3---3---3-------3-------3---3---3---3---3-------3-------3---3---3---3---|

e|---------------------------------------------------------------------------|
B|---------------------------------------------------------------------------|
G|---------------------------------------------------------------------------|
D|----0-------------------------------0--------------------------------------|
A|------------2-------------------------------2------------------------------|
E|3-------3-------3---3---3---3---3-------3-------3--------------------------|


[Verse]

e|---------------------------------------------------------------------------|
B|---------------------------------------------------------------------------|
G|---------------------------------------------------------------------------|
D|-------------------0-------------------------------0-----------------------|
A|---------------------------2-------------------------------2---------------|
E|---3---3---3---3-------3-------3---3---3---3---3-------3-------3---3---3---|
    (C) Thought    that    I'd    be    (G) better       off      if  (Em) I             

e|---------------------------------------------------------------------------|
B|---------------------------------------------------------------------------|
G|---------------------------------------------------------------------------|
D|--------0-------------------------------0----------------------------------|
A|----------------2-------------------------------2--------------------------|
E|3---3-------3-------3---3---3---3---3-------3-------3----------------------|
  were    on   my   (D) own 

e|---------------------------------------------------------------------------|
B|---------------------------------------------------------------------------|
G|---------------------------------------------------------------------------|
D|-------------------0-------------------------------0-----------------------|
A|---------------------------2-------------------------------2---------------|
E|---3---3---3---3-------3-------3---3---3---3---3-------3-------3---3---3---|
   (C) I   tried    to    put    my  (G) finger     on      the   (Em)  moment             

e|---------------------------------------------------------------------------|
B|---------------------------------------------------------------------------|
G|---------------------------------------------------------------------------|
D|--------0-------------------------------0----------------------------------|
A|----------------2-------------------------------2--------------------------|
E|3---3-------3-------3---3---3---3---3-------3-------3----------------------|
     we    went    (D)  wrong

e|---------------------------------------------------------------------------|
B|---------------------------------------------------------------------------|
G|---------------------------------------------------------------------------|
D|-------------------0-------------------------------0-----------------------|
A|---------------------------2-------------------------------2---------------|
E|---3---3---3---3-------3-------3---3---3---3---3-------3-------3---3---3---|
      (C)  But     the     taste         turned  (G)  bitter     so       I             

e|---------------------------------------------------------------------------|
B|---------------------------------------------------------------------------|
G|---------------------------------------------------------------------------|
D|--------0-------------------------------0----------------------------------|
A|----------------2-------------------------------2--------------------------|
E|3---3-------3-------3---3---3---3---3-------3-------3----------------------|
   (Em) pulled    the   (D)  trigger 

e|---------------------------------------------------------------------------|
B|---------------------------------------------------------------------------|
G|---------------------------------------------------------------------------|
D|-------------------0-------------------------------0-----------------------|
A|---------------------------2-------------------------------2---------------|
E|---3---3---3---3-------3-------3---3---3---3---3-------3-------3---3---3---|
     (C)  Not       so      easy   (G)    to       move      on       I             

e|---------------------------------------------------------------------------|
B|---------------------------------------------------------------------------|
G|---------------------------------------------------------------------------|
D|--------0-------------------------------0----------------------------------|
A|----------------2-------------------------------2--------------------------|
E|3---3-------3-------3---3---3---3---3-------3-------3----------------------|
 (Em) guess  I  should  have   known 


[Pre-Chorus]

e|---------------------------------------------------------------------------|
B|---------------------------------------------------------------------------|
G|---------------------------------------------------------------------------|
D|-------------------0-------------------------------0-----------------------|
A|---------------------------2-------------------------------2---------------|
E|---3---3---3---3-------3-------3---3---3---3---3-------3-------3---3---3---|
    (C)  Ice     cold     but    I  (G)  freeze up when I see ya (Em) Left             

e|---------------------------------------------------------------------------|
B|---------------------------------------------------------------------------|
G|---------------------------------------------------------------------------|
D|--------0-------------------------------0----------------------------------|
A|----------------2-------------------------------2--------------------------|
E|3---3-------3-------3---3---3---3---3-------3-------3----------------------|
   you    just   to  (D)  find  out  that  I  need  ya 

e|---------------------------------------------------------------------------|
B|---------------------------------------------------------------------------|
G|---------------------------------------------------------------------------|
D|-------------------0-------------------------------0-----------------------|
A|---------------------------2-------------------------------2---------------|
E|---3---3---3---3-------3-------3---3---3---3---3-------3-------3---3---3---|
     (C)  So      far,     I   (G)    wanna    pull   you   closer  (Em)  I             

e|---------------------------------------------------------------------------|
B|---------------------------------------------------------------------------|
G|---------------------------------------------------------------------------|
D|--------0-------------------------------0----------------------------------|
A|----------------2-------------------------------2--------------------------|
E|3---3-------3-------3---3---3---3---3-------3-------3----------------------|
     wish   we   could  (D) start  the  whole  thing  over


[Chorus]
(C) Ever since I left you
(G) I’ve been trying to get you (Em) back
And it keeps getting (D) worse
(C) I’m burning on the inside
(G) And the truth is that I (Em) didn’t know how good you (D) were 

Until you were (C) gone (G)
Until you were (Em) gone (D)
Until you were (C) gone (G)
Until you were (Em) gone (D)



[Verse]

e|---------------------------------------------------------------------------|
B|---------------------------------------------------------------------------|
G|---------------------------------------------------------------------------|
D|-------------------0-------------------------------0-----------------------|
A|---------------------------2-------------------------------2---------------|
E|---3---3---3---3-------3-------3---3---3---3---3-------3-------3---3---3---|
    (C)  I      was      always  (G)   told     that     only    (Em)  time             

e|---------------------------------------------------------------------------|
B|---------------------------------------------------------------------------|
G|---------------------------------------------------------------------------|
D|--------0-------------------------------0----------------------------------|
A|----------------2-------------------------------2--------------------------|
E|3---3-------3-------3---3---3---3---3-------3-------3----------------------|
    would     heal    the  (D) pain 

e|---------------------------------------------------------------------------|
B|---------------------------------------------------------------------------|
G|---------------------------------------------------------------------------|
D|-------------------0-------------------------------0-----------------------|
A|---------------------------2-------------------------------2---------------|
E|---3---3---3---3-------3-------3---3---3---3---3-------3-------3---3---3---|
   (C)  And   even   though   it's  (G) been     so    long   it   (Em)  still             

e|---------------------------------------------------------------------------|
B|---------------------------------------------------------------------------|
G|---------------------------------------------------------------------------|
D|--------0-------------------------------0----------------------------------|
A|----------------2-------------------------------2--------------------------|
E|3---3-------3-------3---3---3---3---3-------3-------3----------------------|
   hurts    just   the  (D)  same

e|---------------------------------------------------------------------------|
B|---------------------------------------------------------------------------|
G|---------------------------------------------------------------------------|
D|-------------------0-------------------------------0-----------------------|
A|---------------------------2-------------------------------2---------------|
E|---3---3---3---3-------3-------3---3---3---3---3-------3-------3---3---3---|
    (C)  yeah    I    know    I'm  (G)  finding    that   the   (Em)    break             

e|---------------------------------------------------------------------------|
B|---------------------------------------------------------------------------|
G|---------------------------------------------------------------------------|
D|--------0-------------------------------0----------------------------------|
A|----------------2-------------------------------2--------------------------|
E|3---3-------3-------3---3---3---3---3-------3-------3----------------------|
         was     (D)     binding

e|---------------------------------------------------------------------------|
B|---------------------------------------------------------------------------|
G|---------------------------------------------------------------------------|
D|-------------------0-------------------------------0-----------------------|
A|---------------------------2-------------------------------2---------------|
E|---3---3---3---3-------3-------3---3---3---3---3-------3-------3---3---3---|
    (C)  I    take   back   every  (G)  thing    I   said   oh  (Em)   won't             

e|---------------------------------------------------------------------------|
B|---------------------------------------------------------------------------|
G|---------------------------------------------------------------------------|
D|--------0-------------------------------0----------------------------------|
A|----------------2-------------------------------2--------------------------|
E|3---3-------3-------3---3---3---3---3-------3-------3----------------------|
    you    just    come  (D)   home? 



[Pre-Chorus]

e|---------------------------------------------------------------------------|
B|---------------------------------------------------------------------------|
G|---------------------------------------------------------------------------|
D|-------------------0-------------------------------0-----------------------|
A|---------------------------2-------------------------------2---------------|
E|---3---3---3---3-------3-------3---3---3---3---3-------3-------3---3---3---|
    (C)  Ice     cold     but    I  (G)  freeze up when I see ya (Em) Left             

e|---------------------------------------------------------------------------|
B|---------------------------------------------------------------------------|
G|---------------------------------------------------------------------------|
D|--------0-------------------------------0----------------------------------|
A|----------------2-------------------------------2--------------------------|
E|3---3-------3-------3---3---3---3---3-------3-------3----------------------|
   you    just   to  (D)  find  out  that  I  need  ya 

e|---------------------------------------------------------------------------|
B|---------------------------------------------------------------------------|
G|---------------------------------------------------------------------------|
D|-------------------0-------------------------------0-----------------------|
A|---------------------------2-------------------------------2---------------|
E|---3---3---3---3-------3-------3---3---3---3---3-------3-------3---3---3---|
     (C)  So      far,     I   (G)    wanna    pull   you   closer  (Em)  I             

e|---------------------------------------------------------------------------|
B|---------------------------------------------------------------------------|
G|---------------------------------------------------------------------------|
D|--------0-------------------------------0----------------------------------|
A|----------------2-------------------------------2--------------------------|
E|3---3-------3-------3---3---3---3---3-------3-------3----------------------|
     wish   we   could  (D) start  the  whole  thing  over


[Chorus]
(C) Ever since I left you
(G) I’ve been trying to get you (Em) back
And it keeps getting (D) worse
(C) I’m burning on the inside
(G) And the truth is that I (Em) didn’t know how good you (D) were 

Until you were (C) gone (G)
Until you were (Em) gone (D)
Until you were (C) gone (G)
Until you were (Em) gone (D)

Suggest correction
Creating personal tab
Creating personal tab
You can edit any tab online and save it as your Personal.

You can edit, replace or remove any tab part or add personal notes – all changes will be seen only by you.

Personal tabs can be accessed anytime from any device, even offline.
Learn more »
Give kudos to tab author, rate the tab!
1 2 3 4 5
comments
print report bad tab
guest
You may want to rate the tab now too:
select rating
Wanna post a correction for this tab? Suggest correction