Oops, an error
Loading. Please wait.

Young tab

version 1
version 1

Whole song

  • Fully structured with song timings, easy to follow.

Video

  • High quality video lesson with on screen tab, easy to follow.
1,801 views 69 this week
no commentswrite comment
1 2 3 4 5
1 last vote to show rating
add to favorites
×
Save as Personal and add changes to this tab that will be seen only by you. Learn more ›
×
You can save this tab as Personal to edit and correct it or add notes. All changes will be seen only by you. Learn more »
launch autoscroll
font size
0
reset
how to read this tab
guitar tuner
edit
Autoscroll
slow
fast
+/-
esc
set tempo
stop
About this tab version
Fully structured with song timings, easy to follow. Was this info helpful? Yes No
https://www.youtube.com/watch?v=MShrkifiBu8
Capo 2

[Chords]     
   Cadd9     D      Em7
e|-------|-------|-------|
B|---3---|---3---|---3---|
G|---0---|---2---|---0---|
D|---2---|---0---|---2---|
A|---3---|-------|---2---|
E|-------|-------|---0---|

[Intro]
(0.00 - 0.08)
e|-----------------|-----------------|-----------------|-----------------|
B|-3-----------3-3-|-3-----------3-3-|-3-----------3-3-|-3-----------3-3-|
G|-0-----------2-2-|-2-----------0-0-|-0-----------2-2-|-2-----------0-0-| (x1)
D|-2-----------0-0-|-0-----------0-0-|-0-----------0-0-|-0-----------2-2-|
A|-3---------------|-------------2-2-|-2---------------|-------------3-3-|
E|-----------------|-------------0-0-|-0---------------|-----------------|

[Verse]
(0.09 - 0.27)
"Young, we were so young when we thought that we how to love..."
e|-----------------|-----------------|-----------------|-----------------|
B|-3-----------3-3-|-3-----------3-3-|-3-----------3-3-|-3-----------3-3-|
G|-0-----------2-2-|-2-----------0-0-|-0-----------2-2-|-2-----------0-0-| (x2)
D|-2-----------0-0-|-0-----------0-0-|-0-----------0-0-|-0-----------2-2-|
A|-3---------------|-------------2-2-|-2---------------|-------------3-3-|
E|-----------------|-------------0-0-|-0---------------|-----------------|

[Chorus]
(0.28 - 0.46)
"We both know I go too far..."
e|-----------------------------|----------------------------|
B|-3---3-3-3-3---3-3-3-3--3-3--|-3---3-3-3-3---3-3-3-3--3-3-|
G|-0---0-0-0-0---0-0-0-0--2-2--|-2---2-2-2-2---2-2-2-2--0-0-| (x1)
D|-2---2-2-2-2---2-2-2-2--0-0--|-0---0-0-0-0---0-0-0-0--0-0-|
A|-3---3-3-3-3---3-3-3-3-------|------------------------2-2-|
E|-----------------------------|------------------------0-0-|

e|-----------------------------|----------------------------|
B|-3---3-3-3-3---3-3-3-3--3-3--|-3---3-3-3-3---3-3-3-3--3-3-|
G|-0---0-0-0-0---0-0-0-0--2-2--|-2---2-2-2-2---2-2-2-2--0-0-| (x1)
D|-0---0-0-0-0---0-0-0-0--0-0--|-0---0-0-0-0---0-0-0-0--2-2-|
A|-2---2-2-2-2---2-2-2-2-------|------------------------3-3-|
E|-0---0-0-0-0---0-0-0-0-------|----------------------------|

e|-----------------------------|----------------------------|
B|-3---3-3-3-3---3-3-3-3--3-3--|-3---3-3-3-3---3-3-3-3--3-3-|
G|-0---0-0-0-0---0-0-0-0--2-2--|-2---2-2-2-2---2-2-2-2--0-0-| (x1)
D|-2---2-2-2-2---2-2-2-2--0-0--|-0---0-0-0-0---0-0-0-0--0-0-|
A|-3---3-3-3-3---3-3-3-3-------|------------------------2-2-|
E|-----------------------------|------------------------0-0-|

"...we're  learning  to  love..... but it's hard when you're young"
e|-----------------------------|----------------------------|
B|-3---3-3-3-3---3-3-3-3--3-3--|----------------------------|
G|-0---0-0-0-0---0-0-0-0--2-2--|----------------------------| (x1)
D|-0---0-0-0-0---0-0-0-0--0-0--|----------------------------|
A|-2---2-2-2-2---2-2-2-2-------|----------------------------|
E|-0---0-0-0-0---0-0-0-0-------|----------------------------|

[Dance break]
(0.47 - 1.05)
"Yeah it's hard when you're young..."
e|-----------------|-----------------|-----------------|-----------------|
B|-----------------|-----------------|-----------------|-----------------|
G|-----------------|-2-2-2-2-2-2-2-2-|-----------------|-2-2-2-2-2-2-2-2-| (x2)
D|-2-2-2-2-2-2-2-2-|-0-0-0-0-0-0-0-0-|-----------------|-0-0-0-0-0-0-0-0-|
A|-3-3-3-3-3-3-3-3-|-----------------|-2-2-2-2-2-2-2-2-|-----------------|
E|-----------------|-----------------|-0-0-0-0-0-0-0-0-|-----------------|
   .....................................................................

[Verse]
(1.06 - 1.24)
"Caught, we were caught up in the high it was better than drugs..."
e|-----------------|-----------------|-----------------|-----------------|
B|-3-----------3-3-|-3-----------3-3-|-3-----------3-3-|-3-----------3-3-|
G|-0-----------2-2-|-2-----------0-0-|-0-----------2-2-|-2-----------0-0-| (x2)
D|-2-----------0-0-|-0-----------0-0-|-0-----------0-0-|-0-----------2-2-|
A|-3---------------|-------------2-2-|-2---------------|-------------3-3-|
E|-----------------|-------------0-0-|-0---------------|-----------------|

[Chorus]
(1.25 - 1.42)
"We both know I go too far..."
e|-----------------------------|----------------------------|
B|-3---3-3-3-3---3-3-3-3--3-3--|-3---3-3-3-3---3-3-3-3--3-3-|
G|-0---0-0-0-0---0-0-0-0--2-2--|-2---2-2-2-2---2-2-2-2--0-0-| (x1)
D|-2---2-2-2-2---2-2-2-2--0-0--|-0---0-0-0-0---0-0-0-0--0-0-|
A|-3---3-3-3-3---3-3-3-3-------|------------------------2-2-|
E|-----------------------------|------------------------0-0-|

e|-----------------------------|----------------------------|
B|-3---3-3-3-3---3-3-3-3--3-3--|-3---3-3-3-3---3-3-3-3--3-3-|
G|-0---0-0-0-0---0-0-0-0--2-2--|-2---2-2-2-2---2-2-2-2--0-0-| (x1)
D|-0---0-0-0-0---0-0-0-0--0-0--|-0---0-0-0-0---0-0-0-0--2-2-|
A|-2---2-2-2-2---2-2-2-2-------|------------------------3-3-|
E|-0---0-0-0-0---0-0-0-0-------|----------------------------|

e|-----------------------------|----------------------------|
B|-3---3-3-3-3---3-3-3-3--3-3--|-3---3-3-3-3---3-3-3-3--3-3-|
G|-0---0-0-0-0---0-0-0-0--2-2--|-2---2-2-2-2---2-2-2-2--0-0-| (x1)
D|-2---2-2-2-2---2-2-2-2--0-0--|-0---0-0-0-0---0-0-0-0--0-0-|
A|-3---3-3-3-3---3-3-3-3-------|------------------------2-2-|
E|-----------------------------|------------------------0-0-|

"...we're  learning  to  love..... but it's hard when you're young"
e|-----------------------------|----------------------------|
B|-3---3-3-3-3---3-3-3-3--3-3--|----------------------------|
G|-0---0-0-0-0---0-0-0-0--2-2--|----------------------------| (x1)
D|-0---0-0-0-0---0-0-0-0--0-0--|----------------------------|
A|-2---2-2-2-2---2-2-2-2-------|----------------------------|
E|-0---0-0-0-0---0-0-0-0-------|----------------------------|

[Dance break]
(1.43 - 2.19)
"Yeah it's hard when you're young..."
e|-----------------|-----------------|-----------------|-----------------|
B|-----------------|-----------------|-----------------|-----------------|
G|-----------------|-2-2-2-2-2-2-2-2-|-----------------|-2-2-2-2-2-2-2-2-| (x4)
D|-2-2-2-2-2-2-2-2-|-0-0-0-0-0-0-0-0-|-----------------|-0-0-0-0-0-0-0-0-|
A|-3-3-3-3-3-3-3-3-|-----------------|-2-2-2-2-2-2-2-2-|-----------------|
E|-----------------|-----------------|-0-0-0-0-0-0-0-0-|-----------------|
   .....................................................................

[Chorus 2]
(2.20 - 2.38)
"We both know I go too far..."
e|-----------------------------|----------------------------|
B|-3---------------------------|-3--------------------------|
G|-0---------------------------|-2--------------------------| (x1)
D|-2---------------------------|-0--------------------------|
A|-3---------------------------|----------------------------|
E|-----------------------------|----------------------------|

e|-----------------------------|----------------------------|
B|-3---------------------------|-3--------------------------|
G|-0---------------------------|-2--------------------------| (x1)
D|-0---------------------------|-0--------------------------|
A|-2---------------------------|----------------------------|
E|-0---------------------------|----------------------------|

e|-----------------------------|----------------------------|
B|-3---------------------------|-3--------------------------|
G|-0---------------------------|-2--------------------------| (x1)
D|-2---------------------------|-0--------------------------|
A|-3---------------------------|----------------------------|
E|-----------------------------|----------------------------|

e|-----------------------------|----------------------------|
B|-3---------------------------|-3--------------------------|
G|-0---------------------------|-2--------------------------| (x1)
D|-0---------------------------|-0--------------------------|
A|-2---------------------------|----------------------------|
E|-0---------------------------|----------------------------|

[Bridge]
(2.39 - 2.57)
"I'm calling you up, you tell me it's over..."
e|-----------------|-----------------|-----------------|-----------------|
B|-----------------|-----------------|-----------------|-----------------|
G|-----------------|-2-2-2-2-2-2-2-2-|-----------------|-2-2-2-2-2-2-2-2-| (x2)
D|-2-2-2-2-2-2-2-2-|-0-0-0-0-0-0-0-0-|-----------------|-0-0-0-0-0-0-0-0-|
A|-3-3-3-3-3-3-3-3-|-----------------|-2-2-2-2-2-2-2-2-|-----------------|
E|-----------------|-----------------|-0-0-0-0-0-0-0-0-|-----------------|
   .....................................................................

[Outro]
(2.58 - 3.34)
"Yeah it's hard when you're young..."
e|-----------------|-----------------|-----------------|-----------------|
B|-3-3-3-3-3-3-3-3-|-3-3-3-3-3-3-3-3-|-3-3-3-3-3-3-3-3-|-3-3-3-3-3-3-3-3-|
G|-0-0-0-0-0-0-0-0-|-2-2-2-2-2-2-2-2-|-0-0-0-0-0-0-0-0-|-2-2-2-2-2-2-2-2-| (x5)
D|-2-2-2-2-2-2-2-2-|-0-0-0-0-0-0-0-0-|-0-0-0-0-0-0-0-0-|-0-0-0-0-0-0-0-0-|
A|-3-3-3-3-3-3-3-3-|-----------------|-2-2-2-2-2-2-2-2-|-----------------|
E|-----------------|-----------------|-0-0-0-0-0-0-0-0-|-----------------|

[Ending]
(3.35)
e|-----------------|
B|-3---------------|
G|-0---------------| (x1)
D|-2---------------|
A|-3---------------|
E|-----------------|


************************************

| .   Palm Muting

************************************

            
            
Suggest correction
Creating personal tab
Creating personal tab
You can edit any tab online and save it as your Personal.

You can edit, replace or remove any tab part or add personal notes – all changes will be seen only by you.

Personal tabs can be accessed anytime from any device, even offline.
Learn more »
Give kudos to tab author, rate the tab!
1 2 3 4 5
comments
print report bad tab
guest
You may want to rate the tab now too:
select rating
Wanna post a correction for this tab? Suggest correction