Oops, an error
Loading. Please wait.

Give Me Just A Little More Time Bass Tab

1,135 views 6 this week
no commentswrite comment
1 2 3 4 5
1 last vote to show rating
add to favorites
launch autoscroll
font size
0
reset
guitar tuner
Autoscroll
slow
fast
+/-
esc
set tempo
stop
Help us to improve Ultimate-Guitar.com Take our survey!
×
Author
Difficulty
novice
Give Me Just A Little More Time
Song Writers: Holland/Dozier/Holland/Dunbar
Original Artists: Chairman of the Board
Backing Band: The Funk Brothers
UK Song Released: 1970
Bassist: Bob Babbitt
Tabbed by bass50611
Straight forward bassline.
Any comments e-mail me goldenoldie.benson@sky.com
Have fun


Intro & Chorus:
G-----------------------------------------------|
D-----------------------------------------------|
A---33333333---00000000---------------------0---|
E------------------------33333333---111111-3----|

Verse:
G----------------------------------------------------|
D----------------------------------------------------|
A---3-3-3-0-0---2-2-2-0-0---1-1-1-0-0------------0---|
E----------3-----------3-----------3----1-1-1-13-----|

Full Repeats of Verse & Chorus to Fade
Suggest correction
Give kudos to tab author, rate the tab!
1 2 3 4 5
comments
print report bad tab
guest
You may want to rate the tab now too:
select rating
Wanna post a correction for this tab? Suggest correction