Oops, an error
Loading. Please wait.

Dont Fall Tab

version 2
version 2

Whole song

Interactive

3,692 views 6 this week
no commentswrite comment
1 2 3 4 5
1 last vote to show rating
add to favorites
launch autoscroll
font size
0
reset
how to read this tab
guitar tuner
Autoscroll
slow
fast
+/-
esc
set tempo
stop
Help us to improve Ultimate-Guitar.com Take our survey!
×
Author
Difficulty
intermediate
Don't Fall - Script of the bridge (1983)

Intro

Reg's guitar (overdriven guitar)

F#|--------------------------------------------------------------------|
C#|--------------------------------------------------------------------|
 A|--------------------------------------------------------------------|(X4)
 E|-----------------------------3-2~-----------------------------3-2~--|
 B|-------------------------3-2------------------------------3-2-------|
F#|-0-0-0-0-3-3-3-3-2-2-2-2----------0-0-0-0-3-3-3-3-2-2-2-2-----------|

Dave's guitar (chorus/delay guitar)

F#|-0~~~~----||-0~~~~----|          
C#|-0~~~~----||-0~~~~----|         
 A|-1~~~~----||-1~~~~----|(3rd time)
 E|-2~~~~----||-2~~~~----|         
 B|-2~~~~----||-2~~~~----|          
F#|-0~~~~----||-0~~~~----|

Verse

Reg

F#|--------------------------------------------------------------------|
C#|--------------------------------------------------------------------|
 A|--------------------------------------------------------------------|
 E|-----------------------------3-2~-----------------------------3-2~--|
 B|-------------------------3-2------------------------------3-2-------|
F#|-0-0-0-0-3-3-3-3-2-2-2-2----------0-0-0-0-3-3-3-3-2-2-2-2-----------|

Dave(low volume)

F#|-0-0-0-0-0-0-0-0-0-0-0-0-0-0-0--0~--0-0-0-0-0-0-0-0-0-0-0-0-0-0|
C#|-0-0-0-0-0-0-0-0-0-0-0-0-0-0-0--0~--0-0-0-0-0-0-0-0-0-0-0-0-0-0|
 A|-1-1-1-1-4-4-4-4-3-3-3-3-2-2-2--1~--0-0-0-0-0-0-0-0-0-0-0-0-0-0|
 E|-2-2-2-2-5-5-5-5-4-4-4-4-3-3-3--2~--2-2-2-5-5-5-5-4-4-4-4-3-3-3|
 B|-2-2-2-2-5-5-5-5-4-4-4-4-3-3-3--2~--2-2-2-5-5-5-5-4-4-4-4-3-3-3|
F#|-0-0-0-0-0-0-0-0-0-0-0-0-0-0-0--0~--0-0-0-0-0-0-0-0-0-0-0-0-0-0|

Pre chorus

Reg

F#|-0-0-0-0-0-0-0-0-0-0-0-0-0-0-0--0~--0-0-0-0-0-0-0-0-0-0-0-0-0-0|
C#|-0-0-0-0-0-0-0-0-0-0-0-0-0-0-0--0~--0-0-0-0-0-0-0-0-0-0-0-0-0-0|
 A|-1-1-1-1-4-4-4-4-3-3-3-3-2-2-2--1~--1-1-1-4-4-4-4-3-3-3-3-2-2-2|
 E|-2-2-2-2-5-5-5-5-4-4-4-4-3-3-3--2~--2-2-2-5-5-5-5-4-4-4-4-3-3-3|
 B|-2-2-2-2-5-5-5-5-4-4-4-4-3-3-3--2~--2-2-2-5-5-5-5-4-4-4-4-3-3-3|
F#|-0-0-0-0-0-0-0-0-0-0-0-0-0-0-0--0~--0-0-0-0-0-0-0-0-0-0-0-0-0-0|

Dave

F#|-0-0-0-0-0-0-0-0-0-0-0-0-0-0-0--0~--0-0-0-0-0-0-0-0-0-0-0-0-0-0|
C#|-0-0-0-0-0-0-0-0-0-0-0-0-0-0-0--0~--0-0-0-0-0-0-0-0-0-0-0-0-0-0|
 A|-1-1-1-1-4-4-4-4-3-3-3-3-2-2-2--1~--1-1-1-4-4-4-4-3-3-3-3-2-2-2|
 E|-2-2-2-2-5-5-5-5-4-4-4-4-3-3-3--2~--2-2-2-5-5-5-5-4-4-4-4-3-3-3|
 B|-2-2-2-2-5-5-5-5-4-4-4-4-3-3-3--2~--2-2-2-5-5-5-5-4-4-4-4-3-3-3|
F#|-0-0-0-0-0-0-0-0-0-0-0-0-0-0-0--0~--0-0-0-0-0-0-0-0-0-0-0-0-0-0|

Chorus

Reg

F#|---------------------------------------------------------------------------------|
C#|---------------------------------------------------------------------------------|
 A|-5-5-5-5-5-5-5-5-12-12-12-12-12-12-12-12-14-14-14-14-14-14-14-14-----------------|
 E|-5-5-5-5-5-5-5-5-------------------------------------------------4-4-4-5-5-4-4-4-|
 B|-3-3-3-3-3-3-3-3-10-10-10-10-10-10-10-10-12-12-12-12-12-12-12-12-5-5-5-5-5-5-5-5-|
F#|---------------------------------------------------------------------------------|

Dave

F#|----------------------------------------------------------------------------|
C#|----------------------------------------------------------------------------|
 A|-5-5-5-5-5-5-5-5-5-5-5-5-5-5-7-7-4-4-4-4-4-4-4-4-11-11-11-11-11-11-11-11-11-|
 E|-5-5-5-5-5-5-5-5-5-5-5-5-5-5-7-7-4-4-4-4-4-4-4-4----------------------------|
 B|-3-3-3-3-3-3-3-3-3-3-3-3-3-3-5-5-2-2-2-2-2-2-2-2--9--9--9--9--9--9--9--9--9-|
F#|----------------------------------------------------------------------------|

Break & Final Riff

Reg

F#|---------------------------------------------------------------------------------||---|
C#|---------------------------------------------------------------------------------||---|
 A|-5-5-5-5-5-5-5-5-12-12-12-12-12-12-12-12-14-14-14-14-14-14-14-14-7-7-7-7-7-7-7-7-||-5-|
 E|-5-5-5-5-5-5-5-5-12-12-12-12-12-12-12-12-14-14-14-14-14-14-14-14-7-7-7-7-7-7-7-7-||-5-|
 B|-3-3-3-3-3-3-3-3-10-10-10-10-10-10-10-10-12-12-12-12-12-12-12-12-5-5-5-5-5-5-5-5-||-3-|
F#|---------------------------------------------------------------------------------||---|

Dave

F#|---------------------------------------------------------------------------------||---|
C#|---------------------------------------------------------------------------------||---|
 A|-7-7-7-7-7-7-7-7-9-9-9-9-9-9-9-9-7-7-7-7-7-7-7-7-12-12-12-12-11-11-11-11-9-9-9-9-||-5-|
 E|---------------------------------------------------------------------------------||-5-|
 B|-5-5-5-5-5-5-5-5-7-7-7-7-7-7-7-7-5-5-5-5-5-5-5-5-10-10-10-10--9--9--9--9-7-7-7-7-||-3-|
F#|---------------------------------------------------------------------------------||---|


Any correction send me an e-mail: bizkornotem@hotmail.com
Suggest correction
Give kudos to tab author, rate the tab!
1 2 3 4 5
comments
print report bad tab
guest
You may want to rate the tab now too:
select rating
Wanna post a correction for this tab? Suggest correction