Oops, an error
Loading. Please wait.

I Will Remember Tab

647 views 1 this week
no commentswrite comment
1 2 3 4 5
please rate
add to favorites
launch autoscroll
font size
0
reset
how to read this tab
guitar tuner
Autoscroll
slow
fast
+/-
esc
set tempo
stop
Help us to improve Ultimate-Guitar.com Take our survey!
×
Author
Difficulty
novice
Artist :The Chameleons
Album : Strange times
Title : I' ll  remember

  
any comment welcome at:cliolaurent@yahoo.fr


Tuning = FADG#BE
change G chord (half step higher) to G# is easier to play..




set clean: chorus + delay

E-----------------------------------------------|
B-----2------2-1----1-2----2-----2---2-1---1-2--|
G#---0------0-0----0-0----0-2---0---0-0---0-0---| 
D---3------3-3----3-3----3-3---3---3-3---3-3----|
A--4--------------------------------------------|
F-----------------------------------------------|



E---------------------------------------------|
B------2----2-----2---2-----2-----2-----------| 
G#---0-------0---0---0--0--0-----0------------|X2
D--3----------3-4---4-----3--3-4----4-3-------|
A---------------------------------------------|
F---------------------------------------------|

time:55''

E---7---7----7---4--4--4---4-2-1-1-2-4--2------------|
B----4---4----4---4--4---4----------------2----------|
G#----4---4--------4--4---------------------2--------| 
D--------------------------------------------4-------|
A----------------------------------------------------|
F----------------------------------------------------|

E---------------------------------------------|
B------2-----2-----2---2-----2-----2----------| 
G#---0-------0---0---0--0--0-----0------------|X1
D--3---------3-4---4-----3--3-4----4-3--------|
A---------------------------------------------|
F---------------------------------------------|


E---1----------------1------------------------|
B---1-1---2------1------1----2--------1-------|
G#-----------2-----------------2--------------| 
D---------------------------------------------|
A---------------------------------------------|
F---------------------------------------------|

time:1'43

E---------------------------------------------|
B------2---2-----2---2-----2-----2------------| 
G#---0------0---0---0--0--0-----0-------------|X2
D--3---------3-4---4-----3--3-4----4-3--------|
A---------------------------------------------|
F---------------------------------------------|


E---7---7----7---4--4--4---4-2-1-1-2-4--2-------------|
B----4---4----4---4--4---4----------------2-----------|
G#----4---4--------4--4---------------------2---------| 
D--------------------------------------------4--------|
A-----------------------------------------------------|
F-----------------------------------------------------|

time:2'20

E---------------------------------------------|
B----2----2-------2--2-----2-----2--2---2-2---| 
G#--0------0-----0--0--0----0---0--0---0-0----|
D--3---------3-4---4----3----3-4--4---3-3-----|
A---------------------------------------------|
F---------------------------------------------|

until the end

E---------------------------------------------|
B---------------------------------------------|
B-----2---2-------2---2------2--2---2---2-----| 
G#---0---0-------0---0-----0--0----0--0-------|
D--3----3------4---4-----3--3----4--4---------|
A---------------------------------------------|
F---------------------------------------------|

enjoy
Suggest correction
Give kudos to tab author, rate the tab!
1 2 3 4 5
comments
print report bad tab
guest
You may want to rate the tab now too:
select rating
Wanna post a correction for this tab? Suggest correction