Oops, an error
Loading. Please wait.

Monkeyland Bass Tab

1,447 views 3 this week
no commentswrite comment
1 2 3 4 5
2 more votes to show rating
add to favorites
launch autoscroll
font size
0
reset
guitar tuner
Autoscroll
slow
fast
+/-
esc
set tempo
stop
Help us to improve Ultimate-Guitar.com Take our survey!
×
Author
#----------------------------------PLEASE NOTE---------------------------------#
#This file is the author's own work and represents their interpretation of the #
#song. You may only use this file for private study, scholarship, or research. #
#------------------------------------------------------------------------------##
From: "Bugsan" <>
The Chameleons - Monkeyland, bass tabs
official website: http://www.thechameleons.com/
=======================================

INTRO:
======
fade in

G||-----------------|-----------------|-1-1-1-1-1-1-1-1-|-----------------|-----------------|
D||-----------------|-3-3-3-3-3-3-3-3-|-----------------|-1-1-1-1-1-1-1-1-|-1-1-1-1-1-1-1-1-|
A||-2-2-2-2-2-2-2-2-|-----------------|-----------------|-----------------|-----------------| x2
E||-----------------|-----------------|-----------------|-----------------|-----------------|

"I shake my head and shiver...."

G||-----------------|-----------------|-1-1-1-1-1-1-1-1-|-----------------|-----------------|
D||-----------------|-3-3-3-3-3-3-3-3-|-----------------|-1-1-1-1-1-1-1-1-|-1-1-1-1-1-1-1-1-|
A||-2-2-2-2-2-2-2-2-|-----------------|-----------------|-----------------|-----------------| x2
E||-----------------|-----------------|-----------------|-----------------|-----------------|

G||-----------------|-1-1-1-1-1-1-1-1-|-----------------|-----------------|
D||-----------------|-----------------|-1-1-1-1-1-1-1-1-|-1-1-1-1-1-1-1-1-|
A||-2-2-2-2-2-2-2-2-|-----------------|-----------------|-----------------|
E||-----------------|-----------------|-----------------|-----------------|

VERSE:
======
"Is there anyone there...."

G||-----------------|-1-1-1-1-1-1-1-1-|-----------------|-----------------|
D||-----------------|-----------------|-1-1-1-1-1-1-1-1-|-1-1-1-1-1-1-1-1-|
A||-2-2-2-2-2-2-2-2-|-----------------|-----------------|-----------------| x4
E||-----------------|-----------------|-----------------|-----------------|

"A million stars are a moving sight...."

G||-----------------|-----------------|-----------------|-----------------|
D||-2-2-2-2-2-2-2-2-|-4-4-4-4-4-4-4-4-|-1-1-1-1-1-1-1-1-|-1-1-1-1-1-1-1-1-|
A||-----------------|-----------------|-----------------|-----------------| x2
E||-----------------|-----------------|-----------------|-----------------|

CHORUS:
=======
"It's just a trick of the light....."

G||-----------------|-1-1-1-1-1-1-1-1-|-----------------|-----------------|
D||-----------------|-----------------|-1-1-1-1-1-1-1-1-|-1-1-1-1-1-1-1-1-|
A||-2-2-2-2-2-2-2-2-|-----------------|-----------------|-----------------| x2
E||-----------------|-----------------|-----------------|-----------------|

"I have to know what is real..."

G||-----------------|-----------------|-----------------|-----------------|
D||-2-2-2-2-2-2-2-2-|-4-4-4-4-4-4-4-4-|-1-1-1-1-1-1-1-1-|-1-1-1-1-1-1-1-1-|
A||-----------------|-----------------|-----------------|-----------------| x2
E||-----------------|-----------------|-----------------|-----------------|

VERSE...
etc...
Suggest correction
Give kudos to tab author, rate the tab!
1 2 3 4 5
comments
print report bad tab
guest
You may want to rate the tab now too:
select rating
Wanna post a correction for this tab? Suggest correction