Oops, an error
Loading. Please wait.

Monkeyland Tab

version 2
version 2

Whole song

2,777 views 1 this week
no commentswrite comment
1 2 3 4 5
2 more votes to show rating
add to favorites
launch autoscroll
font size
0
reset
how to read this tab
guitar tuner
Autoscroll
slow
fast
+/-
esc
set tempo
stop
Help us to improve Ultimate-Guitar.com Take our survey!
×
Author
Artist :The Chameleons
Album : Script of the bridge
Title : Monkeyland

Another beautiful song from one of the best top 10 rock album in
the last 20 years.
  
any comment welcome at:cliolaurent@yahoo.fr
my previous version had some mistakes, sorry


Tuning = normal

part 1

slightly palm  mute
E----------------------------------------------------|
B----------------------------------------------------|
G----------------------------------------------------| 
D----------------------------------------------------|
A---6--8--9--6--8-9--6--9--6--8--9-6--8-9--6--9------|
E----------------------------------------------------|
Repeat along the song



part 2
"it s just a trick of the..
      B                            E
E--------------------------------------------------------|
B---7-7-7---------------------|--------------------------|
G---8-8-8----8-8-8---11-11-11-|---1-1-1----------8-8-8---| 
D---9-9-9----6-6-6---11-11-11-|---2-2-2---4-4-4--8-8-8---|
A---9-9-9----6-6-6---9--9--9--|---2-2-2---4-4-4--6-6-6---|
E---7-7-7---------------------|-----------2-2-2----------|
               X2                    X2

Repeat along the song

alternate part 1 and 2 

'Is there anyone...  
E-------------------------------------------------------------------|
B-------------------------------------------------------------------|
G--4--------------------------------------------------------------4-| 
D--4--1-1-1-------------------------------------------------1-1-1-4-|
A--2--------4-4-4-2-2-2-4-4-4-2-2-1-1-1-2-2-2-1-1-1-2-2-2-1-------2-|
E-------------------------------------------------------------------|
repeat three or four times


enjoy
Suggest correction
Give kudos to tab author, rate the tab!
1 2 3 4 5
comments
print report bad tab
guest
You may want to rate the tab now too:
select rating
Wanna post a correction for this tab? Suggest correction