Oops, an error
Loading. Please wait.

Monkeyland Tab

version 3
version 3

Whole song

956 views 1 this week
no commentswrite comment
1 2 3 4 5
please rate
add to favorites
launch autoscroll
font size
0
reset
how to read this tab
guitar tuner
Tab Pro tools
  • play this tab
  • loop segment
  • change instrument
  • show fretboard
  • metronome
×
Best way to learn
"Monkeyland"
Autoscroll
slow
fast
+/-
esc
set tempo
stop
Contributor
Monkeyland - Script of the bridge

Intro/Verse - in this part reg play some harmonics taping the first string with 
his pick, but the other hand 

cover the strings, so you can get that sound: "ki ki ki ki"

Reg (overdriven guitar)

F#|-x-x-x-x-x-x-x-x-x-x-x-x-x-x-x-x-x-x-x-x-x-|
C#|-------------------------------------------|
 A|-------------------------------------------|
 E|-------------------------------------------|
 B|-------------------------------------------|
F#|-------------------------------------------|

Dave (chorus/delay guitar)

F#|---------------------------------|
C#|---------------------------------|
 A|-----------------8-8-8-8-8-8-8-8-|
 E|-7-7-7-7-7-7-7-7-8-8-8-8-8-8-8-8-|
 B|-7-7-7-7-7-7-7-7-6-6-6-6-6-6-6-6-|
F#|-5-5-5-5-5-5-5-5-----------------|

F#|-------------------------------------------------------------------------|
C#|-------------------------------------------------------------------------|
 A|-11-11-11-11-11-11-11-11-------------------------------------------------|
 E|-11-11-11-11-11-11-11-11-11-11-11-11-11-11-11-11-11-11-11-11-11-11-11-11-|
 B|--9--9--9--9--9--9--9--9-11-11-11-11-11-11-11-11-11-11-11-11-11-11-11-11-|
F#|--------------------------9--9--9--9--9--9--9--9--9--9--9--9--9--9--9--9-|

Verse 2nd part 

Reg

F#|---------------------------------||-------------------|
C#|---------------------------------||-------------------|
 A|---------------------------------||-------------------|
 E|---------------------------------||-------------------|
 B|---6-7---6-7---7---6-7---6-7---7-||-------------------|
F#|-9-----9-----9---9-----9-----9---||-9-9-9-9-9-9-9-9-9-|

Dave

F#|-----------------------------------------------------------------|
C#|-----------------------------------------------------------------|
 A|-----------------6-6-6-6-6-6-6-6-9-9-9-9-9-9-9-9-9-9-9-9-9-9-9-9-|
 E|-7-7-7-7-7-7-7-7-6-6-6-6-6-6-6-6-9-9-9-9-9-9-9-9-9-9-9-9-9-9-9-9-|
 B|-7-7-7-7-7-7-7-7-4-4-4-4-4-4-4-4-7-7-7-7-7-7-7-7-7-7-7-7-7-7-7-7-|
F#|-5-5-5-5-5-5-5-5-------------------------------------------------|

F#|---------------------------------------------------------------------------------|
C#|---------------------------------------------------------------------------------|
 A|-11-11-11-11-11-11-11-11-9-9-9-9-9-9-9-9-6-6-6-6-6-6-6-6-13-13-13-13-13-13-13-13-|
 E|-11-11-11-11-11-11-11-11-9-9-9-9-9-9-9-9-6-6-6-6-6-6-6-6-13-13-13-13-13-13-13-13-|
 B|--9--9--9--9--9--9--9--9-7-7-7-7-7-7-7-7-4-4-4-4-4-4-4-4-11-11-11-11-11-11-11-11-|
F#|---------------------------------------------------------------------------------|

F#|---------------------------------------------------------|
C#|---------------------------------------------------------|
 A|-11-11-11-11-11-11-11-11-9-9-9-9-9-9-9-9-6-6-6-6-6-6-6-6-|
 E|-11-11-11-11-11-11-11-11-9-9-9-9-9-9-9-9-6-6-6-6-6-6-6-6-|
 B|--9--9--9--9--9--9--9--9-7-7-7-7-7-7-7-7-4-4-4-4-4-4-4-4-|
F#|---------------------------------------------------------|

Chorus
Reg

F#|-----------------------------------------------------------------------------------------|
C#|-----------------------------------------------------------------------------------------|
 A|-----------------11-11-11-11-11-11-11-11-------------------------------------------------|
 E|-7-7-7-7-7-7-7-7-11-11-11-11-11-11-11-11-11-11-11-11-11-11-11-11-11-11-11-11-11-11-11-11-|
 B|-7-7-7-7-7-7-7-7--9--9--9--9--9--9--9--9-11-11-11-11-11-11-11-11-11-11-11-11-11-11-11-11-|
F#|-5-5-5-5-5-5-5-5--------------------------9--9--9--9--9--9--9--9--9--9--9--9--9--9--9--9-|

F#|-------------------------------------------------------------------------------|
C#|-------------------------------------------------------------------------------|
 A|-------------------------------------------------------------------------------|
 E|-7-7-7-7-7-7-7-7-9-9-9-9-9-9-9-11-11-11-11-11-11-11-11-11-11-11-11-11-11-11-11-|
 B|-7-7-7-7-7-7-7-7-9-9-9-9-9-9-9-11-11-11-11-11-11-11-11-11-11-11-11-11-11-11-11-|
F#|-5-5-5-5-5-5-5-5-7-7-7-7-7-7-7--9--9--9--9--9--9--9--9--9--9--9--9--9--9--9--9-|

Dave

F#|-----------------------------------------------------------------|
C#|-----------------------------------------------------------------|
 A|-----------------6-6-6-6-6-6-6-6-9-9-9-9-9-9-9-9-9-9-9-9-9-9-9-9-|
 E|-7-7-7-7-7-7-7-7-6-6-6-6-6-6-6-6-9-9-9-9-9-9-9-9-9-9-9-9-9-9-9-9-|
 B|-7-7-7-7-7-7-7-7-4-4-4-4-4-4-4-4-7-7-7-7-7-7-7-7-7-7-7-7-7-7-7-7-|
F#|-5-5-5-5-5-5-5-5-------------------------------------------------|

F#|---------------------------------------------------------------------------------|
C#|---------------------------------------------------------------------------------|
 A|-11-11-11-11-11-11-11-11-9-9-9-9-9-9-9-9-6-6-6-6-6-6-6-6-13-13-13-13-13-13-13-13-|
 E|-11-11-11-11-11-11-11-11-9-9-9-9-9-9-9-9-6-6-6-6-6-6-6-6-13-13-13-13-13-13-13-13-|
 B|--9--9--9--9--9--9--9--9-7-7-7-7-7-7-7-7-4-4-4-4-4-4-4-4-11-11-11-11-11-11-11-11-|
F#|---------------------------------------------------------------------------------|

F#|-------------------------------------------------|
C#|-------------------------------------------------|
 A|-14-14-14-14-14-14-14-14-13-13-13-13-13-13-13-13-|
 E|-14-14-14-14-14-14-14-14-13-13-13-13-13-13-13-13-|
 B|-12-12-12-12-12-12-12-12-11-11-11-11-11-11-11-11-|
F#|-------------------------------------------------|

F#|---------------------------------------------------------|
C#|---------------------------------------------------------|
 A|-11-11-11-11-11-11-11-11-9-9-9-9-9-9-9-9-6-6-6-6-6-6-6-6-|
 E|-11-11-11-11-11-11-11-11-9-9-9-9-9-9-9-9-6-6-6-6-6-6-6-6-|
 B|--9--9--9--9--9--9--9--9-7-7-7-7-7-7-7-7-4-4-4-4-4-4-4-4-|
F#|---------------------------------------------------------|

Verse again

2nd Chorus-Dave's riff

F#|----0~---------------0~---||-----------------0~----|
C#|------0~---------------0~-||-------------------0~--|
 A|-2~--------2~---1~--------||-2~----2-2---1---------|
 E|-2~------2----2----2------||-2~--2-----2---2-------|
 B|-0~-----------------------||-0~--------------------|
F#|--------------------------||-----------------------|

Reg's final riff

F#|-------------------------------------|
C#|-------------------------------------|
 A|-------------------------------------|
 E|-------------------------------------|
 B|-------------------------------------|
F#|-9-9-9-9-9-9-9-9-9-9-9-9-9-9-9-9-9-9-|

F#|-----------------------------------------------------------------------|
C#|-----------------------------------------------------------------------|
 A|-----------------------------------------------------------------------|
 E|-----------------------------------------------------------------------|
 B|-----------------------------------------------------------------------|
F#|-9-9-9-9-7-7-7-7-5-5-5-5-7-7-7-5-5-4-4-5-5-5-4-4-4-5-5-5-4-4-4-5-5-4-4-|


Final note

Dave


F#|----|
C#|----|
 A|-2~-|
 E|-2~-|
 B|-0~-|
F#|----|

Reg


F#|----|
C#|----|
 A|----|
 E|----|
 B|----|
F#|-5~-|

PLEASE RATE!!!
Any corrections send me and e-mail: bizkornotem@hotmail.com
comments
We did not receive enough feedback on this tab! Please rate:
print report bad tab
1 2 3 4 5
I want to post or [tab]
guest
You may want to rate the tab now too:
select rating
Please do not post tabs as comments. Select "correction" instead!