Oops, an error
Loading. Please wait.

Nathans Phase Tab

version 1
version 1

Acoustic

Whole song

983 views 3 this week
1 commentread comment
1 2 3 4 5
please rate
add to favorites
launch autoscroll
font size
0
reset
how to read this tab
guitar tuner
Autoscroll
slow
fast
+/-
esc
set tempo
stop
Help us to improve Ultimate-Guitar.com Take our survey!
×
Author
khurskain 472
Nathan's Phase (acoustic 'Strip' version)
The Chameleons
----------------------------------------------------------------

Standard tuning

Dave's riff (intro & verses)
|---------------------------|
|-3-----2---3-----2---------|
|---4---------4-------2-----|
|-----4---4-----4---4-----4-|
|---------------------------|
|---------------------------|

Bm         	      F#m
	Of all the faces that we wear
Sometimes joy, sometimes despair
The mask is gone, no mystery
Replaced by fake theology

Dave's riff (chorus) (sometimes an octave higher)
|---------------------------------------------|
|---------------------------------------------|
|---------------------------------------------|
|---------------------------------------------|
|-5---5-5-5-7--7-7--7-7-4---4-4-5-2--2-2--2-2-|
|---------------------------------------------|

G	Em  			A 		Asus4	Bmsus4
		It's just a phase I'm going through
	 G	Em 		A 		 Asus4 			F#7
It's true, it's just a phase I'm going through,
		Bm	F#m
you know

Bm 				F#m
	The streets of London are paved with lead
Just as my lungs are paved with Leb
Wrap the voices in my head
Feels like I'm welded to this bed

G	Em 	               A 		Asus4	  Bmsus4
		 It's just a phase I'm going through
	G	Em 		A 			Asus4		F#7
It's true, it's just a phase I'm going through,
		Bm		F#m		Bm		F#m
you know

BREAK
G	Em 	 A 	Asus4	Bmsus4	G	Em	A	Asus4	F#7
Bm	F#m		Bm	F#m

Dave's riff (break & next verse)
|------14--12--14-|
|-12--------------|
|-----------------|
|-----------------|
|-----------------|
|-----------------|

Bm				F#m
	The streets of London paved with lead
Just as my lungs are paved with Leb
Brush the cobwebs from my head
Feels like I'm welded to this bed

G		Em 			A 		Asus4 		Bmsus4
I'm not dead. It's just a phase I'm going through
And you - you're just a stranger passing through
	   G		Em 		A 		Asus4 		F#7	   Bm    F#m
Out of tune - with this phase I'm going through
You know - it's just a phase I'm going through
You know

Tabbed by: Klaus Hurskainen
klaus.hurskainen@elisanet.fi
----------------------------------------------------------------
Suggest correction
What's this?
You can suggest a correction to this tab. Community and Mods will review your correction and vote to approve or reject it.
comments
We did not receive enough feedback on this tab! Please rate:
print report bad tab
1 2 3 4 5
1 comment total.
+1 reply
FranP 183 wrote on May 10 2011, 06:18 am

That one was really good !!! congratulations and thank you so much.

I like to play the intro (with standard tunning) this way, sounds better to me
|---------------------------|
|-3-----2--3--3--2----------|
|---4--------------3--------|
|-----4--------------4------|
|---------------------------|
|---------------------------|

Let me ask you a favour :) ...It will be really great if you can TAB On the Beach acoustic
best
FranP (from Barcelona)

guest
You may want to rate the tab now too:
select rating
Please do not post tabs as comments. Select "correction" instead!