Oops, an error
Loading. Please wait.

Paper Tiger Tab

1,644 views 1 this week
no commentswrite comment
1 2 3 4 5
please rate
add to favorites
launch autoscroll
font size
0
reset
how to read this tab
guitar tuner
Autoscroll
slow
fast
+/-
esc
set tempo
stop
Help us to improve Ultimate-Guitar.com Take our survey!
×
Author
bugsan 591
#----------------------------------PLEASE NOTE---------------------------------#
#This file is the author's own work and represents their interpretation of the #
#song. You may only use this file for private study, scholarship, or research. #
#------------------------------------------------------------------------------##
From: "Bugsan" <>
official website: http://www.thechameleons.com/
=======================================
Song structure:
===============
intro/chorus, verse, chorus, verse, chorus,
bridge1, bridge2,
chorus, verse,
bridge1, end

=======================================
| ============== INTRO ============== |
=======================================

Reg plays this disto+palm muted, and tremolo picking

E||--------------------|---------------------|
B||--------------------|---------------------|
G||*-------------------|---------------------| /----\
D||*-------------------|---------------------| | x4 |
A||--------------------|---------------------| \----/
E||---7----------------|--5--------2----5----|

then comes Dave, reg continues to play his thing.

dave's guitar, with delai/chorus effect

E||---------------------------|--------------------------------|
B||--------12--10-------------|--------------------------------|
G||----------------11~--------|--------------------------------| /----\
D||--9--9---------------------|--11--11--11--12----12--11------| | x3 |
A||---------------------------|----------------------------12--| \----/
E||---------------------------|--------------------------------|
  
E||---------------------------|--9--9--9--10----9--------|
B||--------12--10-------------|--------------------10----|
G||----------------11~--------|--------------------------| /----\
D||--9--9---------------------|--------------------------| | x1 |
A||---------------------------|--------------------------| \----/
E||---------------------------|--------------------------|

=======================================
| ============== VERSE ============== |
=======================================

Dave's guitar, tremolo picking, chorus...

E||--------------------|--------------------|--------------------|---------------------|
B||--------------------|--------------------|--------------------|---------------------|
G||--------------------|--------------------|--------------------|---------------------|
D||--------------------|--------------------|--------------------|---------------------|
A||--------------------|--------------------|--------------------|---------------------|
E||--10----------------|--9--------7--------|--10----------------|--9--------12--------|
               
E||--------------------|--------------------|--------------------|----------------------|
B||--------------------|--------------------|--------------------|----------------------|
G||--------------------|--------------------|--------------------|----------------------|
D||--------------------|--------------------|--------------------|----------------------|
A||--------------------|--------------------|--------------------|----------------------|
E||--10----------------|--9--------7--------|--10----------------|--12--------14--------|
    
Reg's guitar, disto

E||--------------------------|
B||--------------------------|
G||--------------------------| /----\
D||--x--x--9--9--x--x--9--9--| | x8 |
A||--x--x--9--9--x--x--9--9--| \----/
E||--x--x--7--7--x--x--7--7--|


=======================================
| ============== CHORUS ============= |
=======================================

dave's guitar, with delai/chorus effect

E||---------------------------|--------------------------------|
B||--------12--10-------------|--------------------------------|
G||----------------11~--------|--------------------------------| /----\
D||--9--9---------------------|--11--11--11--12----12--11------| | x3 |
A||---------------------------|----------------------------12--| \----/
E||---------------------------|--------------------------------|
  
E||---------------------------|--9--9--9--10----9--------|
B||--------12--10-------------|--------------------10----|
G||----------------11~--------|--------------------------| /----\
D||--9--9---------------------|--------------------------| | x1 |
A||---------------------------|--------------------------| \----/
E||---------------------------|--------------------------|

Reg's guitar

E||--------------------------|--------------------------|
B||--------------------------|--------------------------|
G||--------------------------|--------------------------|
D||--------------------------|--------------------7--7--|
A||--------------------------|--7--7--7--9--9--9--------|
E||--7--7--7--7--7--7--7--7--|--------------------------|

E||--------------------------|--------------------------|
B||--------------------------|--------------------------|
G||--------------------------|--------------------------|
D||--------------------------|--------------------------|
A||--------------------------|--------------------------|
E||--7--7--7--7--7--7--7--7--|--5--5--5--2--2--2--5--5--|

x2 times

=======================================
| ============= BRIDGE 1 ============ |
=======================================

Reg plays like intro

E||--------------------|---------------------|
B||--------------------|---------------------|
G||*-------------------|---------------------| /----\
D||*-------------------|---------------------| | x4 |
A||--------------------|---------------------| \----/
E||---7----------------|--5--------2----5----|

=======================================
| ============= BRIDGE 2 ============ |
=======================================

Reg's guitar, palm muted

E||--7-----7-----7-----7-----|
B||-----7-----7-----7-----7--|
G||--------------------------| /----\
D||--------------------------| |x14 |
A||--------------------------| \----/
E||--------------------------|

Dave's guitar, chorus etc...

     Bm                  E5       F#m       
     ^                   ^        ^         
E||-------------------|--0-----------------|
B||--3----------------|--0--------2--------|
G||--4----------------|--4--------2--------| /----\
D||--4----------------|--2--------4--------| | x3 |
A||--2----------------|-----------4--------| \----/
E||-------------------|--------------------|

=======================================
| =============== END =============== |
=======================================
Dave is still playing his thing
Reg's guitar:

                         |----3----|                          
E||-------------------|--------------------------|
B||-------------------|--------------------------|
G||-------------------|--------------------------| /----\
D||-------------------|--------------------------| | x6 |
A||--2----------------|--5----4----2----0--------| \----/
E||-------------------|--------------------------|



Suggest correction
What's this?
You can suggest a correction to this tab. Community and Mods will review your correction and vote to approve or reject it.
comments
We did not receive enough feedback on this tab! Please rate:
print report bad tab
1 2 3 4 5
guest
You may want to rate the tab now too:
select rating
Please do not post tabs as comments. Select "correction" instead!