Oops, an error
Loading. Please wait.

Pleasure And Pain Tab

version 3
version 3

Whole song

431 views 3 this week
no commentswrite comment
1 2 3 4 5
please rate
add to favorites
launch autoscroll
font size
0
reset
how to read this tab
guitar tuner
Autoscroll
slow
fast
+/-
esc
set tempo
stop
Help us to improve Ultimate-Guitar.com Take our survey!
×
Contributor
Pleasure and Pain - Script of the bridge
Here comes one of my favorite songs from this album, so i hope you enjoy it
Delay Set: Level: 100/100 Feedback-80/100 Delay times-330ms

Reg (overdriven guitar)-palm muted

F#|------------------------------------------------------------------|
C#|------------------------------------------------------------------|
 A|------------------------------------------------------------------|
 E|-----2-----2---------2-----2---------2-----2---------2-----2------|
 B|---2---2-3---3-2---2---2-3---3-2---2---2-3---3-2---2---2-3---3-2--|
F#|-0---------------0---------------0---------------0----------------|

Dave (chorus and delay)

F#|--------------------------------||-2-2-2~------0~--|
C#|---------7-8~--10~--8-7---------||-3-3-3~-----0~---|
 A|-9~----9----------------9~-7----||-2-2-2~----0~----|
 E|-----------------------------9~-||-0-0-0~---2~-----|
 B|--------------------------------||---------2-------|
F#|--------------------------------||---------0-------|

Verse

Reg

F#|------------------------------------------------------------------|
C#|------------------------------------------------------------------|
 A|------------------------------------------------------------------|
 E|-----2-----2---------2-----2---------2-----2---------2-----2------|
 B|---2---2-3---3-2---2---2-3---3-2---2---2-3---3-2---2---2-3---3-2--|
F#|-0---------------0---------------0---------------0----------------|

Dave

F#|-----0~---------|
C#|----0~-------0~-|
 A|---0~-----------|
 E|--2~----0-2~----|
 B|-2--------------|
F#|-0--------------|

Mark

 A|-----------------|
 E|-----------------|
 B|-----7-----------|
F#|-0-0---0-8-8-8-7-|

Chorus

Reg

F#|---------------------------------||--------------------|
C#|---------------------------------||--------------------|
 A|-5-5-5-5-5-5-5-x-7-7-7-7-7-7-7-x-||-5-5-5-5-5-5-5------|
 E|-5-5-5-5-5-5-5-x-7-7-7-7-7-7-7-x-||-5-5-5-5-5-5-5------|
 B|-3-3-3-3-3-3-3-x-5-5-5-5-5-5-5-x-||-3-3-3-3-3-3-3/5b7~-|
F#|---------------------------------||--------------------|

Dave

F#|----0~-----0~----0~------------0~--|
C#|----1~-----3~----1~--------3~---0~-|
 A|---0~-----0~----0~---0---0---------|
 E|--2~-----0~----2~------2-----------|
 B|-3~-----------3~-------------------|
F#|--------3~-------------------------|

Mark

 A|-----------------------------------------|
 E|-----------------------------------------|
 B|-----------------10-10-10-10-10-10-10-10-|
F#|-8-8-8-8-8-8-8-8-------------------------|

 A|---------------------------------||--------------------|
 E|---------------------------------||--------------------|
 B|---------------------------------||--------------------|
F#|-8-8-8-8-8-8-8-8-3-3-3-3-3-3-3-3-||-8-8-8-8-8-8-8-8-7~-|

Post-Chorus

Reg

F#|------------------------------------------------------------------|
C#|------------------------------------------------------------------|
 A|------------------------------------------------------------------|
 E|-----2-----2---------2-----2---------2-----2---------2-----2------|
 B|---2---2-3---3-2---2---2-3---3-2---2---2-3---3-2---2---2-3---3-2--|
F#|-0---------------0---------------0---------------0----------------|

Dave

F#|--------------------------------||---------------------------10~-7~-|
C#|---------7-8~--10~--8-7---------||---------7-8~--10~--8-7-----------|
 A|-9~----9----------------9~-7----||-9~----9----------------9~--------|
 E|-----------------------------9~-||----------------------------------|
 B|--------------------------------||----------------------------------|
F#|--------------------------------||----------------------------------|

Reg

F#|----------------------------------------------|
C#|----------------------------------------------|
 A|----------------------------------------------|
 E|-----2-----2------2-----2------2-----2--------|
 B|---2---2-3---3-2~---2-3---3-2~---2-3---3-2~---|
F#|-0-------------0~-----------0~-----------0~---|

Dave

F#|-2-2-2~------0~-------|
C#|-3-3-3~-----0~--1~-0~-|
 A|-2-2-2~----0~---------|
 E|-0-0-0~---2~----------|
 B|---------2------------|
F#|---------0------------|

Verse-just bass

Mark

 A|-----------------|
 E|-----------------|
 B|-----7-----------|
F#|-0-0---0-8-8-8-7-|

Chorus Again

Break

Chorus once again

Dave

F#|---------------------------------------------------------0-----|
C#|-1-1-1-1-1-1-1-1-3-3-3-3-1-1-1-1-0-0-0-0-0-0-0-0-------3---0~--|
 A|-0-0-0-0-0-0-0-0-0-0-0-0-0-0-0-0-0-0-0-0-0-0-0-0-0---0---------|
 E|-2-2-2-2-2-2-2-2-2-2-2-2-2-2-2-2-2-2-2-2-2-2-2-2---2-----------|
 B|-3-3-3-3-3-3-3-3-3-3-3-3-3-3-3-3-2-2-2-2-2-2-2-2---------------|
F#|---------------------------------------------------------------|

Reg-at the end of the other riff

F#|-12~----|
C#|----12~-|
 A|--------|
 E|--------|
 B|--------|
F#|--------|

Final Part

Final Part

Dave

F#|--------------------------------------------|
C#|---0~----0-----2---2-3~----------3-0~---0---|
 A|-----------------4------2-0~---0------0---0-|
 E|-2-----2---0-4---------------4--------------|
 B|--------------------------------------------|
F#|--------------------------------------------|

Reg

F#|----------------------------------|
C#|-------------------------------3~-|
 A|---2---2---2---2---2---2---2------|
 E|-0---0---0---0---0---0---0---0----|
 B|----------------------------------|
F#|----------------------------------|

Mark

 A|---4---4---4---4---6---6---6---6-------------------7---7---7---7-|
 E|-2---2---2---2---4---4---4---4-----7---7---7---7-5---5---5---5---|
 B|---------------------------------5---5---5---5-------------------|
F#|-----------------------------------------------------------------|


last note

Dave

F#|--------|
C#|-3~--0~-|
 A|-0~--0~-|
 E|-0~--0~-|
 B|--------|
F#|--------|

Reg

F#|--------|
C#|--------|
 A|-7~-----|
 E|-7~-----|
 B|-5~-----|
F#|--------|

Mark

 A|-7~-----|
 E|-5~-----|
 B|--------|
F#|--------|

Any correction send me and e-mail: bizkornotem@hotmail.com
comments
We did not receive enough feedback on this tab! Please rate:
print report bad tab
1 2 3 4 5
I want to post or [tab]
guest
You may want to rate the tab now too:
select rating
Please do not post tabs as comments. Select "correction" instead!