Oops, an error
Loading. Please wait.

Second Skin Tab

version 2
version 2

Whole song

Interactive

1,745 views 6 this week
no commentswrite comment
1 2 3 4 5
please rate
add to favorites
launch autoscroll
font size
0
reset
how to read this tab
guitar tuner
Autoscroll
slow
fast
+/-
esc
set tempo
stop
Help us to improve Ultimate-Guitar.com Take our survey!
×
Author
Second Skin - Script of the bridge

Intro

Dave's Guitar (Keyboards on the album)

F#|-------------------------------------------------------------------------------|
C#|-------------------------------------------------------------------------------|
 A|-------------------------------------------------------------12-12-------------|
 E|-------------12-12-14-14-14-14-14-14-14-14-14-14-12-12-14-14-------------------|
 B|-12-12-14-14-------------------------------------------------------14-14-14-14-|
F#|-------------------------------------------------------------------------------|

F#|-------------------------------------------------------------------------------|
C#|-------------------------------------------------------------------------------|
 A|-------------------------------------------------------------------------------|
 E|-------------------------------------------------------------------------------|
 B|-12-12-12-12-------------------------------------------------------------------|
F#|-------------12-12-12-12-10-10-10-10-12-12-12-12-12-12-12-12-------------------|

Verse

Dave (chorus/delay guitar)

F#|-------------------------------------------------------------|
C#|-------------------------------------------------------------|
 A|-9-9-9-9-9-9-9-9-9-9-9-9-12-12-12-12-9-9-9-9-9-9-9-9-9-9-9-9-|
 E|-------------------------------------------------------------|
 B|-7-7-7-7-7-7-7-7-7-7-7-7-10-10-10-10-7-7-7-7-7-7-7-7-7-7-7-7-|
F#|-------------------------------------------------------------|

F#|-------------------------------------------------------------|
C#|-------------------------------------------------------------|
 A|-14-14-14-14-12-12-12-12-12-12-12-12-11-11-11-11-11-11-11-11-|
 E|-------------------------------------------------------------|
 B|-12-12-12-12-10-10-10-10-10-10-10-10--9--9--9--9--9--9--9--9-|
F#|-------------------------------------------------------------|

Reg (overdriven guitar)

F#|-------------------------------------------------|
C#|-------------------------------------------------|
 A|-------------------------14----------------------|
 E|----------------14---------------14--------------|
 B|-------14----------------------------------14-14-|
F#|-12-12----12-12----12-12----12-12----12-12-------|

INTRO Riff

Dave

F#|-------------------------------------------------------------------------------|
C#|-------------------------------------------------------------------------------|
 A|-------------------------------------------------------------12-12-------------|
 E|-------------12-12-14-14-14-14-14-14-14-14-14-14-12-12-14-14-------------------|
 B|-12-12-14-14-------------------------------------------------------14-14-14-14-|
F#|-------------------------------------------------------------------------------|

F#|-------------------------------------------------------------------------------|
C#|-------------------------------------------------------------------------------|
 A|-------------------------------------------------------------------------------|
 E|-------------------------------------------------------------------------------|
 B|-12-12-12-12-------------------------------------------------------------------|
F#|-------------15-15-15-15-14-14-14-14-12-12-12-12-12-12-12-12-------------------|

Reg

F#|-------------------------------------------------------------------------------|
C#|-------------------------------------------------------------------------------|
 A|-------------------------------------------------------------12-12-------------|
 E|-------------12-12-14-14-14-14-14-14-14-14-14-14-12-12-14-14-------------------|
 B|-12-12-14-14-------------------------------------------------------14-14-14-14-|
F#|-------------------------------------------------------------------------------|

F#|-------------------------------------------------------------------------------|
C#|-------------------------------------------------------------------------------|
 A|-------------------------------------------------------------------------------|
 E|-------------------------------------------------------------------------------|
 B|-12-12-12-12-------------------------------------------------------------------|
F#|-------------12-12-12-12-10-10-10-10-12-12-12-12-12-12-12-12-------------------|

BREAK

Dave

F#|-0--0----0--0----0--0----0-------|
C#|-0----0--0----0--0----0--0-------|
 A|-1-------0-------1-------0-------|
 E|-2-------0-------2-------0-------|
 B|-2-------0-------2-------0-------|
F#|-0-------0-------0-------0-------|

Reg

F#|-0--0----0--0----0--0----0---0---|
C#|-0----0--0----0--0----0--0---0---|
 A|-1-------0-------1-------0-------|
 E|-2-------2-------2-------2-------|
 B|-2-------2-------2-------2-------|
F#|-0-------0-------0-------0-------|

Final Part

Dave

F#|-----------------||-------------------------|
C#|-----------------||-------------------------|
 A|-----------------||-------------------------|
 E|-7-7-7-7-7-7-7-7-||-11-11-11-11-11-11-11-11-|
 B|-9-9-9-9-9-9-9-9-||-12-12-12-12-12-12-12-12-|
F#|-----------------||-------------------------|

F#|---------------------------------------------------------------------------------|
C#|---------------------------------------------------------------------------------|
 A|---------------------------------------------------------------------------------|
 E|-7-7-7-7-7-7-7-7-7-7-7-7-7-7-7-7-11-11-11-11-11-11-11-11--9--9--9--9--9--9--9--9-|
 B|-9-9-9-9-9-9-9-9-9-9-9-9-9-9-9-9-12-12-12-12-12-12-12-12-11-11-11-11-11-11-11-11-|
F#|---------------------------------------------------------------------------------|

Reg

F#|-----------------||-------------------------|
C#|-----------------||-------------------------|
 A|-----------------||-------------------------|
 E|-7-7-7-7-7-7-7-7-||-11-11-11-11-11-11-11-11-|
 B|-5-5-5-5-5-5-5-5-||--9--9--9--9--9--9--9--9-|
F#|-----------------||-------------------------|

F#|--------------------------------------------------------------------------|
C#|--------------------------------------------------------------------------|
 A|--------------------------------------------------------------------------|
 E|-7-7-7-7-7-7-7-7-7-7-7-7-7-7-7-7-11-11-11-11-11-11-11-11--9-9-9-9-9-9-9-9-|
 B|-5-5-5-5-5-5-5-5-5-5-5-5-5-5-5-5--9--9--9--9--9--9--9--9--7-7-7-7-7-7-7-7-|
F#|--------------------------------------------------------------------------|

Dave's final riff

F#|----------------------------------------------|
C#|-----0-0-----0~-0--0--------0-0-----3---2-2-0-|
 A|-2-2-----2-2---------2~-2-2-----2-2---2-------|
 E|----------------------------------------------|
 B|----------------------------------------------|
F#|----------------------------------------------|

F#|-----0-0-----0~-0--0--------0-0-----0~-0--0---|
C#|-3-3-----3-3---------3~-3-3-----3-3---------3-|
 A|----------------------------------------------|
 E|----------------------------------------------|
 B|----------------------------------------------|
F#|----------------------------------------------|

Last note

Reg

F#|---|
C#|---|
 A|---|
 E|-7-|
 B|-5-|
F#|---|

Dave


F#|-2-|
C#|-3-|
 A|-2-|
 E|-0-|
 B|---|
F#|---|

Suggest correction
Give kudos to tab author, rate the tab!
1 2 3 4 5
comments
print report bad tab
guest
You may want to rate the tab now too:
select rating
Please do not post tabs as comments. Select "correction" instead!