Oops, an error
Loading. Please wait.

Singing Rule Britannia Tab

1,665 views 1 this week
no commentswrite comment
1 2 3 4 5
x 3
add to favorites
launch autoscroll
font size
0
reset
how to read this tab
guitar tuner
Autoscroll
slow
fast
+/-
esc
set tempo
stop
Help us to improve Ultimate-Guitar.com Take our survey!
×
Author
Singing Rule Britannia - What does anything mean? Basically (1985)
One of my favorites of this album

Intro

Reg's guitar (overdriven guitar)

F#|----------------------------------|
C#|----------------------------------|
 A|----------------------------------|
 E|---4---4---4---4---4---4---4---4--|
 B|-----4-------4-------4-------4----|
F#|-2-------0-------2-------0--------|

Dave (Chorus and delay)

F#|-7------7------9--------9----9----9----9-----|
C#|---9------9------11------11---11---11---11---|
 A|-----9~-----9~------11~----11---11---11---11-|
 E|---------------------------------------------|
 B|---------------------------------------------|
F#|---------------------------------------------|

Verse

Reg

F#|----------------------------------|
C#|----------------------------------|
 A|----------------------------------|
 E|---4---4---4---4---4---4---4---4--|
 B|-----4-------4-------4-------4----|
F#|-2-------0-------2-------0--------|

Dave

F#|-9------9----------7--7~--|
C#|---11------11------9--9~--|
 A|------11~-----11~--9--9~--|
 E|--------------------------|
 B|--------------------------|
F#|--------------------------|

Chorus

Reg

F#|-----------------------------------------------------------------|
C#|-----------------------------------------------------------------|
 A|-----------------------------------------------------------------|
 E|-----------------------------------------------------------------|
 B|-----------------------------------------------------------------|
F#|-7-7-7-7-7-7-7-7-7-7-7-7-9-9-9-9-5-5-5-5-5-5-5-5-4-4-4-4-5-5-5-5-|

Dave

F#|--------------------------------------------------------------------------|
C#|--------------------------------------------------------------------------|
 A|-7-7-7-7-7-7-7-7-6-6-6-6-7-7-7-7-9-9-9-9-9-9-9-9-11-11-11-11-11-11-11-11--|
 E|--------------------------------------------------------------------------|
 B|-5-5-5-5-5-5-5-5-4-4-4-4-5-5-5-5-7-7-7-7-7-7-7-7-9--9--9--9--9--9--9--9---|
F#|--------------------------------------------------------------------------|

Break

Reg

F#|-------------------------------------------------------------------------------|
C#|-------------------------------------------------------------------------------|
 A|-------------------------------------------------------------------------------|
 E|-------------------------------------------------------------------------------|
 B|-------------------------------------------------------------------------------|
F#|-7-7-7-7-7-7-7-7-9-9-9-9-5-10-10-10-10-9-9-9-9-9-9-9-9-10-10-10-10-12-12-12-12-|

Dave

F#|-------------------------------------------------|
C#|-12---------------------12-----------------------|
 A|----13----------14-14~-----13----------14-14-13~-|
 E|-------14-12-12---------------14-12-12-----------|
 B|-------------------------------------------------|
F#|-------------------------------------------------|

Final Part

Reg

F#|----------------------------------||---|
C#|----------------------------------||---|
 A|----------------------------------||---|
 E|---4---4---4---4---4---4---4---4--||-4-|
 B|-----4-------4-------4-------4----||-4-|
F#|-2-------0-------2-------0--------||-2-|

Dave

F#|---------------------------------------------------------------------------------|
C#|---------------------------------------------------------------------------------|
 A|-11-11-11-11-11-11-11-11-11-11-11-13-13-13-13-13-6-6-6-6-6-6-6-6-6-6-6-6-6-6-6-6-|
 E|---------------------------------------------------------------------------------|
 B|--9--9--9--9--9--9--9--9--9--9--9-11-11-11-11-11-4-4-4-4-4-4-4-4-4-4-4-4-4-4-4-4-|
F#|---------------------------------------------------------------------------------|

F#|-7---------7---------9----------9-------||-----------------------------|
C#|---9---9-----9---------11---------11----||-----------------------------|
 A|-----9---9-----9--11------11-11------11-||-11-11-11-13-13-13-18-18-18~-|
 E|----------------------------------------||-----------------------------|
 B|----------------------------------------||--9--9--9-11-11-11-16-16-16~-|
F#|----------------------------------------||-----------------------------|

PLEASE RATE!!!
Any correction send me an e-mail: bizkornotem@hotmail.com
Suggest correction
Give kudos to tab author, rate the tab!
1 2 3 4 5
comments
print report bad tab
guest
You may want to rate the tab now too:
select rating
Wanna post a correction for this tab? Suggest correction