Oops, an error
Loading. Please wait.

Soul In Isolation Bass Tab

783 views 1 this week
1 commentread comment
1 2 3 4 5
3 more votes to show rating
add to favorites
launch autoscroll
font size
0
reset
guitar tuner
Autoscroll
slow
fast
+/-
esc
set tempo
stop
Help us to improve Ultimate-Guitar.com Take our survey!
×
Author
Difficulty
----------------------------------------------------------------------------
	             Soul in Isolation - The Chameleons
----------------------------------------------------------------------------

Tabbed By : blackbdmillsaps
e-mail: blackbdmillsaps@hotmail.com

The (Time) signifies when the riff starts and when it ends. Please note that due to 
in recordings the times may be slightly different from those of your own. This particular 
is 7:29.

There are only 3 parts in the song for the bass. There is some mild deviation from the 
in the later part of the song but these are the basic lines.

Tuning: Standard EADG

Bass comes in at (0:26)

Riff #1 (0:26-1:16)(1:34-2:17)(4:40-5:28)

G|----------------------------------|---------------------------------------|
D|--------1-11-11-------------------|---------1-11-11-------------3-33-33---|
A|-1-11-11--------------------------|-1-11-11-------------------------------|
E|-----------------2-22-22--1-11-11-|-------------------2-22-22-------------|

Riff #2 (1:17-1:32)(2:18-2:58)(5:29-To Fadeout)

G|--------------------------------------------------------------------------|
D|---------4-44444----------------------------------------------------------|
A|-1-11111---------4-44444--------------------------------------------------|
E|--------------------------4-44444-----------------------------------------|

End of Riff #2 (1:32-1:34)

G|--------------------------------------------------------------------------|
D|---------6----------------------------------------------------------------|
A|------------4/----1-------------------------------------------------------|
E|---4~---------------------------------------------------------------------|

Bridge - Riff #3 (2:59-4:39)

G|--------------------------------------------------------------------------|
D|--------------------------------------------------------------------------|
A|--------------------------------------------------------------------------|
E|--1-111-0-1-0-1-111-0-1-0-1-11-1111-111-1-111-0-1-0-1---------------------|


| /  slide up
| \  slide down
| h  hammer-on
| p  pull-off
| ~  vibrato
| +  harmonic
| x  Mute note
============================================================================
Suggest correction
Give kudos to tab author, rate the tab!
1 2 3 4 5
comments
print report bad tab
1 comment total.
0 reply
uberpsycho 176 Jul 20, 2013 01:07 AM

Thanks for this.

I've heard someone describe 'Swamp Thing' as the definitive Chameleon's tune from "Strange Times", but 'Soul in Isolation' with its desperate lyrics, and vocals, ice-cold guitars, and undeniable melodies is the song that stands out.

It's 7 and a half minutes long and it doesn't feel like it at all. A brilliant piece of songwriting and performance.

guest
You may want to rate the tab now too:
select rating
Wanna post a correction for this tab? Suggest correction