Oops, an error
Loading. Please wait.

Swamp Thing Bass Tab

1,551 views 3 this week
no commentswrite comment
1 2 3 4 5
please rate
add to favorites
launch autoscroll
font size
0
reset
guitar tuner
Autoscroll
slow
fast
+/-
esc
set tempo
stop
Help us to improve Ultimate-Guitar.com Take our survey!
×
Author
Difficulty
----------------------------------------------------------------------------
			 SWAMP THING - The Chameleons
----------------------------------------------------------------------------

Tabbed By : Blackbdmillsaps
e-mail: blackbdmillsaps@hotmail.com

Tuning: Standard (EADG)

Please note that the time in parens represents the timing and duration of each riff. 
note that these start and finish times for each riff are based on my version of the song 
may differ from you own. Otherwise the song is straight forward and easy to play.

Intro riff (Bass comes in at 0:25): (0:25-0:44)

G|-------------------------------------------------------------------------|
D|-------------------------------------------------------------------------|
A|-------------------------------------------------------------------------|
E|-6-6-6-6-6-6-6-6-6-6-6-6-6-6-6-6-6-6-6-6-6-6-6-6-6-6-6-6-6-6-6-6-6-------|

Transition: (0:44-1:30) Play riff six times

G|-------------------------------------------------------------------------|
D|-------------------------------------------------------------------------|
A|-------------------------------------------------------------------------|
E|--22222222--/44444444--/666666666666666666-------------------------------|

Verse: (1:38-2:06)(2:28-2:56) Play riff six times

G|-------------------------------------------------------------------------|
D|-------------------------------------------------------------------------|
A|-------------------------------------------------------------------------|
E|-2-2-1--4-4-1--6-6-6-6-6-6-----------------------------------------------|

Chorus: (2:06-2:27)(2:57-3:17)(4:06-4:25) Play Riff Four times|End With

G|---------------------------------------------------------|---------------|
D|---------------------------------------------------------|---------------|
A|---------------------4-4-4-4--2-2-2-2--------------------|---------------|
E|----2-2-2-2-2-2-2-2--------------------------------------|--2-------4----|

Bridge: (3:18-3:37)(4:26-5:03) Play riff twice each time

G|-------------------------------------------------------------------------|
D|-------------------------------------------------------------------------|
A|---4-4-4-4-4-4-4-4-------------------------------------------------------|
E|-------------------2-2-2-2-4-4-4-4--/6-6-6-6-6-6-6-6--2-2-2-2-4-4-4-4----|

Post Bridge: (3:38-4:05) Play riff twice each time

G|------------------------6-----8------------------------------------------|
D|-----------------------------------4-----6-------------------------------|
A|---4-----6---------------------------------------------------------------|
E|--------------2-----4----------------------------------------------------|

Outro: (5:04-> Play until fade out

G|-------------------------------------------------------------------------|
D|--------------------------6-6---8--10--8---------------6-6-6-------------|
A|--4-4-4-4-4-4-4-4--6-6-6---------------------------6-6-------------------|
E|-------------------------------------------6-6-6-6-----------------------|
Suggest correction
Give kudos to tab author, rate the tab!
1 2 3 4 5
comments
print report bad tab
guest
You may want to rate the tab now too:
select rating
Please do not post tabs as comments. Select "correction" instead!