Oops, an error
Loading. Please wait.

Look In My Eyes Bass Tab

13 views 1 this week
no commentswrite comment
1 2 3 4 5
3 more votes to show rating
add to favorites
launch autoscroll
font size
0
reset
guitar tuner
Autoscroll
slow
fast
+/-
esc
set tempo
stop
Help us to improve Ultimate-Guitar.com Take our survey!
×
Author
Difficulty
[Intro]
G|----------------------------------------------------|
D|----------------------------------------------------|
A|----6-4--6-4-------6-4--6-4------6-4--6-4-------6-4-|
E|-2------------3-4-----------1-2------------3-4------|


[Verse 1]: "Look in my eyes..."
G|---|-----------------------------|----------------|
D|---|-----------------------------|----------------|
A|---|-6-4--6-4-------6-4--6-4-----|--6-----------4-|
E|-2-|-----------3-4-----------1-2-|-----4--4--4----|
                   x3


[Verse 2]: "Look in my eyes..."
G|---|-----------------------------|----------------|
D|---|-----------------------------|----------------|
A|---|-6-4--6-4-------6-4--6-4-----|--6-----------4-|
E|-2-|-----------3-4-----------1-2-|-----4--4--4----|
                   x3

[Bridge]: "You said it that time..."
G|----------------------------------------------------------------|
D|----6-4--6-4--6----6-4--6-4--6-4--------------4-----------------|
A|-2--------------2-----------------6-4--6-4--6----6-4--6-4--6-2--|
E|----------------------------------------------------------------|

G|----------------------------------------------|
D|-6-4--6-4--6----6-4--6-4--6-------------------|
A|-------------2-------------------3--6-------4-|
E|----------------------------4--4-------4--4---|


[Verse 3]: "Look in my eyes..."
G|---|-----------------------------|----------------|
D|---|-----------------------------|----------------|
A|---|-6-4--6-4-------6-4--6-4-----|--6-----------4-|
E|-2-|-----------3-4-----------1-2-|-----4--4--4----|
                   x3

[Outro]:"ooo"
G|-----------------------------|
D|-----------------------------|
A|----6-4--6-4-------6-4--4--4-|
E|-2-----------3-4-------------|
               x3




Suggest correction
Give kudos to tab author, rate the tab!
1 2 3 4 5
comments
print report bad tab
guest
You may want to rate the tab now too:
select rating
Wanna post a correction for this tab? Suggest correction