Oops, an error
Loading. Please wait.

First tab

version 1
version 1

Whole song

Interactive

2,708 views 6 this week
1 commentread comment
1 2 3 4 5
x 5
add to favorites
×
Save as Personal and add changes to this tab that will be seen only by you. Learn more ›
×
You can save this tab as Personal to edit and correct it or add notes. All changes will be seen only by you. Learn more »
launch autoscroll
font size
0
reset
how to read this tab
guitar tuner
edit
Autoscroll
slow
fast
+/-
esc
set tempo
stop
-----------------------------------------------------------------
First – The Chariot
-----------------------------------------------------------------
Tabbed by: millarso (Jake Miller)
Email: millarso2.0@gmail.com
Tuning: Drop D (Weird for The Chariot, but this song makes so much more sense this way)

Section 1
Both Guitars
e|-1st------------------------------------------|
B|-time-----------------------------------------|
G|-(77)-----------7-7-7-xx-------------7-7-7-xx-|
D|-(77)-6-5-0-3-0-7-7-7-xx-3-5-0-2-3-0-7-7-7-xx-|x8
A|-(55)-6-5-0-3-0-5-5-5-xx-3-5-0-2-3-0-5-5-5-xx-|
D|------6-5-0-3-0-------xx-3-5-0-2-3-0-------xx-|

Section 2
Guitar 1
e|------------------------------|
B|------------------------------|
G|-11-------------7------9------|
D|--x-(x16)-------x-(x8)-x-(x8)-|x2
A|--9-------------5------7------|
D|------------------------------|

Guitar 2
e|------------------------------|
B|------------------------------|
G|------------------------------|
D|-10------9------5------7------|x2
A|-10-(x8)-9-(x8)-5-(x8)-7-(x8)-|
D|-10------9------5------7------|

Guitar 1
e|------------------------------------------------|
B|------------------------------------------------|
G|-11------12------14------11------12------12b----|
D|--x-(x4)--x-(x4)--x-(x8)--x-(x8)--x-(x6)--x-----|
A|--9------10------12-------9------10------10b----|
D|------------------------------------------------|

Guitar 2
e|------------------------------------------------|
B|------------------------------------------------|
G|------------------------------------------------|
D|-10--------------12-------9------10-------------|
A|-10-(x8)---------12-(x8)--9-(x8)-10-(x6)--------|
D|-10--------------12-------9------10------(mute)-|

Guitar 1
e|-----------------------------------------|
B|-----------------------------------------|
G|-11-------------7------9------9-11-12-11-|
D|--x-(x16)-------x-(x8)-x-(x4)-x--x--x--x-|
A|--9-------------5------7------7--9-10--9-|
D|-----------------------------------------|

Guitar 2
e|-----------------------------------------|
B|-----------------------------------------|
G|-----------------------------------------|
D|-10------9------5------7--------7-9-10-9-|
A|-10-(x8)-9-(x8)-5-(x8)-7-(x4)---7-9-10-9-|
D|-10------9------5------7--------7-9-10-9-|

Section 3
Guitar 1
e|------------------|
B|------------------|
G|-----------<5><5>-|
D|-6-5-0-3-0-<5><5>-|x8
A|-6-5-0-3-0--------|
D|-6-5-0-3-0--------|

Guitar 2
e|---------------|
B|---------------|
G|-----------7-7-|
D|-6-5-0-3-0-7-7-|x8
A|-6-5-0-3-0-5-5-|
D|-6-5-0-3-0-----|

Section 4 (RAWHIDE)
Guitar 1 (Clean, lots of reverb, medium tremolo)
e|---------------------------------------------------------------------------|
B|---------------------------------------------------------0-----------------|
G|---------------------------------------------------------0-----------------|
D|-----------------------------0h2----2-0-2--2--2h4p2p0----2-----------------|
A|-----------------2-0--0--0-2--------------------------2--2--000h2--2-------|
D|-2----2-4-5----5-------------------------------------------------------5-2-|

e|--------------------------------------------------------------------------------|
B|---------------------------------------------------------------0----------------|
G|---------------------------------------------------------------0----------------|
D|-------------------------------0h2--2--2--000h2--2--2h4p2p0----2----------------|
A|-------------------2-0--0--0-2------------------------------2--2--222--0--2-----|
D|-2--2--2-4-5--5--5----------------------------------------------------------5-2-|

Section 5 (GIDDYUP)
Guitar 1
e|-----------------------------------------------------------------|
B|-----------------------------------------------------------------|
G|-----------------------------------------------------------------|
D|-----------------------------------------------0-2-222-2-222-2-0-|
A|-------------------------------2-0-000-0-000-2-------------------|
D|-2-222-2-222-2-4-5-555-5-555-5-----------------------------------|

Guitar 2 (similar settings as Guitar 1)
e|-0---------------3---------------5---------------0---------------|
B|-0---------------3---------------5---------------0---------------|
G|-0---------------4---------------6---------------0---------------|
D|-2---------------5---------------7---------------2---------------|
A|-2---------------5---------------7---------------2---------------|
D|-----------------------------------------------------------------|

Guitar 1
e|-----------------------------------------------------------------|
B|-----------------------------------------------------------------|
G|-----------------------------------------------------------------|
D|-2-222-2-222-2-0-------------------------------------------------|
A|-----------------2-222-2-222-2-0-2-222-2-222-2-------------------|
D|-----------------------------------------------5-2-222-2-222-2-0-|

Guitar 2
e|-0---------------6---------------5---------------0---------------|
B|-0---------------6---------------5---------------0---------------|
G|-0---------------7---------------6---------------0---------------|
D|-2---------------8---------------7---------------2---------------|
A|-2---------------8---------------7---------------2---------------|
D|-----------------------------------------------------------------|

Basically, REPEAT SECTION 5 until the end of the song and let the last notes hang.

This is a fun little song although uncharacteristically tuned for The Chariot. If you play nothing
but Chariot songs, I would suggest just capoing at the 3rd fret and playing the song this way 
because I am near positive that this song is in Drop D because it just fits.
Please rate & comment.
Thanks,
millarso

| /  slide up
| \  slide down
| h  hammer-on
| p  pull-off
| ~  vibrato
| TP tremolo picking

            
            
Suggest correction
Creating personal tab
Creating personal tab
You can edit any tab online and save it as your Personal.

You can edit, replace or remove any tab part or add personal notes – all changes will be seen only by you.

Personal tabs can be accessed anytime from any device, even offline.
Learn more »
comments
print report bad tab
1 comment total.
0 reply
earp224 43 Jun 26, 2014 11:27 AM

This is on the dot awesome!!

guest
You may want to rate the tab now too:
select rating
Wanna post a correction for this tab? Suggest correction