Oops, an error
Loading. Please wait.

Goodnight My Lady And A Forever Farewell bass

1,403 views 1 this week
no commentswrite comment
1 2 3 4 5
2 more votes to show rating
add to favorites
×
Save as Personal and add changes to this tab that will be seen only by you. Learn more ›
×
You can save this tab as Personal to edit and correct it or add notes. All changes will be seen only by you. Learn more »
launch autoscroll
font size
0
reset
guitar tuner
edit
Autoscroll
slow
fast
+/-
esc
set tempo
stop
Difficulty
-------------------------------------------------------------------------------
			     Goodnight My Lady and a Forever Farewell - the Chariot
-------------------------------------------------------------------------------

Tabbed By : Dylan Ellis
e-mail: Just message me at Myspace.com/cliffzindag138

Tuning:Drop C (CGCF) or Drop B (BF#BE I think that's it, I always tune to it by ear)
Figure 1
F---------------------------------------------------------------------------|
C---------------------------------------------------------------------------|
G---------------------------------------------------------------------------|
C-00~-1/17------------------------------------------------------------------|
Repeat this until Josh Scogin starts yelling "Situated! Just below the grave! Just above 
eyes!" During this, you play...

Figure 2
F---------------------------------------------------------------------------|
C---------------------------------------------------------------------------|
G---------------------------------------------------------------------------|
C00------00-----00----------------------------------------------------------|

Then the breakdown thing. Depending on which version your playing, it slightly varies. 
only difference is that on the Unsung EP version, you sustain the first opens a bit.
Figure 3
F-----------------------------------------------------------------------------|
C-----------------------------------------------------------------------------|
G-----------------------------------------------------------------------------|
C-00-000----------------------------------------------------------------------|


When thats over, I think you play this. I'm doubtful about this though.
Figure 4
F---------------------------------------------------------------------------|
C---------------------------------------------------------------------------|
G------33333333----33333333-----33333333-----333333333333-------------------|
C-4230----------423---------423----------423--------------------------------|


And than you play open notes, if you listen to the song you'll know when. Then after 
you play this part.

Figure 5
F-----------------------------------------------------------------------------|
C-----------------------------------------------------------------------------|
G-0~~3~~----------------------------------------------------------------------|
C--------4~3~-----------------------------------------------------------------|

Repeat as nescescary. Then this once.


F---------------------------------------------------------------------------|
C---------------------------------------------------------------------------|
G---------------------------------------------------------------------------|
C-0~~~~~~-------------------------------------------------------------------|

Then you play Figure 5 again for a bit. Than you end with this


F---------------------------------------------------------------------------|
C---------------------------------------------------------------------------|
G---------------------------------------------------------------------------|
C-0~~~~--0~~~~-0~~~~-0~~~~ 0------------------------------------------------|


This is my first tab. And the rhythms aren't tabbed out. Just listen to the song for the 
Also, I didn't tab out how many times to play a note either in some cases. TAB OUT MORE 
CHARIOT SONGS. Thank you for reading my tab. I hope it sounds right to you too.

God Bless

            
            
Suggest correction
Creating personal tab
Creating personal tab
You can edit any tab online and save it as your Personal.

You can edit, replace or remove any tab part or add personal notes – all changes will be seen only by you.

Personal tabs can be accessed anytime from any device, even offline.
Learn more »
Give kudos to tab author, rate the tab!
1 2 3 4 5
comments
print report bad tab
guest
Wanna post a correction for this tab? Suggest correction