Oops, an error
Loading. Please wait.

Here Comes A Soul Saver tab

181 views 1 this week
no commentswrite comment
1 2 3 4 5
2 more votes to show rating
add to favorites
×
Save as Personal and add changes to this tab that will be seen only by you. Learn more ›
×
You can save this tab as Personal to edit and correct it or add notes. All changes will be seen only by you. Learn more »
launch autoscroll
font size
0
reset
how to read this tab
guitar tuner
edit
Autoscroll
slow
fast
+/-
esc
set tempo
stop
Author
Difficulty
About this tab version
Not seen this tabbed before, so here is my transcription. Based on the Album version. Was this info helpful? Yes No
[Verse]
G

G                                             C                     G
Here comes a soul saver on your record player floatin' about in the dust, 
G                                                    C            G
you can sing the joys baby, I'll be down when you're free from the rust,
C    G    Am   C     G            C    G  Am   C         G    (Riff 1 x2)
Take your pick who's your saviour come in five different flavours.

G                                      
Tell me I'm sweeter than your broken leader
C                             G
I'll take the smooth with the rough,
G                                      C                         G
I see you lying there, Put him down no reply in the sand; in the mud.
      C    G  Am C    G
Don't kick it I wanna keep it,
      C    G  Am C    D
Don't feel it I wanna drive in the sunshine of your life,
                      C                              G     (Riff 2)
In the sunshine of my life can you feel it when it's right?
D
Can you feel it in your soul,
                          C
Can you feel what's goin' on?
      G    (Riff 1 x2)
Yeah! Right

      C    G  Am C    G
Don't kick it I wanna freeze it,
      C    G  Am C    D
Don't feel it I wanna drive it's the sunshine of my life,
D                        C                              G
Its the sunshine of your life can you feel it when it's right?
D                                                  C
Look it comes, And when it flows like your country song 
G Riff 1
what's going on

Outro riff 1
Going on
Going on

Riff 1

e|--------------------------------------------------7-----------|
B|----0-------1-------3-------5-------7-------8-----8-----------|
G|--------0-------0-------0-------0-------0---------0-----------|
D|--------------------------------------------------------------|
A|--------------------------------------------------------------|
E|-3------------------------------------------------------------|

Riff 2

e|--------3------------------|-----2---------------------|
B|--------3------------------|-----3---------------------|
G|--------4------------------|-----2---------------------|
D|--------5------------------|--0--0--3-3-3--4--4-5-/-7--|
A|--5---5----3-3-3--4--4-4---|-(5){5}--------------------|
E|--3---3--------------------|---------------------------|



************************************

| /  Slide up

************************************
Suggest correction
Creating personal tab
Creating personal tab
You can edit any tab online and save it as your Personal.

You can edit, replace or remove any tab part or add personal notes – all changes will be seen only by you.

Personal tabs can be accessed anytime from any device, even offline.
Learn more »
Give kudos to tab author, rate the tab!
1 2 3 4 5
comments
print report bad tab
guest
You may want to rate the tab now too:
select rating
Wanna post a correction for this tab? Suggest correction