Oops, an error
Loading. Please wait.

North Country Boy bass

version 1
version 1

Whole song

Interactive

822 views 6 this week
1 commentread comment
1 2 3 4 5
2 more votes to show rating
add to favorites
×
Save as Personal and add changes to this tab that will be seen only by you. Learn more ›
×
You can save this tab as Personal to edit and correct it or add notes. All changes will be seen only by you. Learn more »
launch autoscroll
font size
0
reset
guitar tuner
edit
Autoscroll
slow
fast
+/-
esc
set tempo
stop
Song: North Country Boy                                 
Artist: The Charlatans
Tunning: Standard
Tabbed by: Indie Nation


   
G||-----------------------|-----------------------|-----------------------|
D||-----------------------|-----------------------|-----------------------|
A||--0--------0----0------|--0--------0----0------|--0--------0----0------|
E||-----------------------|-----------------------|-----------------------|


     
-----------------------|-----------------------|-----------------------|
-----------------------|-----------------------|-----------------------|
--0--------0----0------|--0--------0----0------|--0--------0----0------|
-----------------------|-----------------------|-----------------------|


   
-----------------------|-----------------------|-----------------------|
-----------------------|-----------------------|-----------------------|
--0--------0----0------|--0--------0----0------|--0--------0----0------|
-----------------------|-----------------------|-----------------------|


---------------------|---------------------------|--------------------------|
---------------------|---------------------------|--------------------------|
--0--------9----9----|--7----7--7-7-7--7-7-7---5-|--5--5-5-5--5--5----5-3---|
---------------------|---------------------------|--------------------------|


     
----------------------|----------------------|-----------------------|
----------------------|----------------------|-----------------------|
--0----0----0----0----|--0----0----0----0----|--0--------0----0------|
----------------------|----------------------|-----------------------|


     
-----------------------|-----------------------|---------------------|
-----------------------|-----------------------|---------------------|
--0--------0----0------|--0--------0----0------|--0--------9----9----|
-----------------------|-----------------------|---------------------|


  
---------------------------|--------------------------|----------------------|
---------------------------|--------------------------|----------------------|
--7----7--7-7-7--7-7-7---5-|--5--5-5-5--5--5----5-3---|--0----0----0----0----|
---------------------------|--------------------------|----------------------|


    
----------------------|----------------------|----------------------|
----------------------|----------------------|----------------------|
--0----0----0----0----|--2----2----2----2----|--7----7----7----7----|
----------------------|----------------------|----------------------|


  
---------------------------|------------------------------------|
---------------------------|----------------------------10--12--|
--9---9-9---9---9--7-9--9--|--10---10-10---10----10--10---------|
---------------------------|------------------------------------|


  
----------------------------|----------------------------|
--9---9-9---9---9--9-9--12--|----------------------------|
----------------------------|--7----7----10---10-----10--|
----------------------------|----------------------------|


    
-----------------------|-----------------------|-----------------------|
-----------------------|-----------------------|-----------------------|
--0--------0----0------|--0--------0----0------|--0--------0----0------|
-----------------------|-----------------------|-----------------------|


   
-----------------------|-----------------------|---------------------|
-----------------------|-----------------------|---------------------|
--0--------0----0------|--0--------0----0------|--0--------9----9----|
-----------------------|-----------------------|---------------------|


    
---------------------------|--------------------------|----------------------|
---------------------------|--------------------------|----------------------|
--7----7--7-7-7--7-7-7---5-|--5--5-5-5--5--5----5-3---|--0----0----0----0----|
---------------------------|--------------------------|----------------------|


     
----------------------|----------------------|----------------------|
----------------------|----------------------|----------------------|
--0----0----0----0----|--2----2----2----2----|--7----7----7----7----|
----------------------|----------------------|----------------------|


   
---------------------------|------------------------------------|
---------------------------|----------------------------10--12--|
--9---9-9---9---9--7-9--9--|--10---10-10---10----10--10---------|
---------------------------|------------------------------------|


   
----------------------------|----------------------------|
--9---9-9---9---9--9-9--12--|----------------------------|
----------------------------|--7----7----10---10-----10--|
----------------------------|----------------------------|

  
----------9---9---------9--9---------9-|-(9)--9---9---------9--9---------9-|
--9-11-11-------9-11-11------9-11-11---|------------9-11-11------9-11-11---|
---------------------------------------|-----------------------------------|
---------------------------------------|-----------------------------------|


  
-(9)--9---9---------9--9---------9-|-(9)--9---9---------9---7--9--|
------------9-11-11------9-11-11---|------------9-11-11-----------|
-----------------------------------|------------------------------|
-----------------------------------|------------------------------|


   
----------------------|-----------------------|-----------------------|
----------------------|-----------------------|-----------------------|
--0----0----0----0----|--5--------0------0----|--5--------0------0----|
----------------------|-----------------------|-----------------------|


     
-----------------------|----------------------|-----------------------|
-----------------------|----------------------|-----------------------|
--5--------0------0----|--0----0----0----0----|--5--------0------0----|
-----------------------|----------------------|-----------------------|


    
-----------------------|-----------------------|-----------------------|
-----------------------|-----------------------|-----------------------|
--5----5----5----5-3---|--0--------0----0------|--0--------0----0------|
-----------------------|-----------------------|-----------------------|


 
-----------------------|---------------------|---------------------------|
-----------------------|---------------------|---------------------------|
--0--------0----0------|--0--------9----9----|--7----7--7-7-7--7-7-7---5-|
-----------------------|---------------------|---------------------------|


    
--------------------------|----------------------|----------------------|
--------------------------|----------------------|----------------------|
--5--5-5-5--5--5----5-3---|--0----0----0----0----|--0----0----0----0----|
--------------------------|----------------------|----------------------|


  
----------------------|----------------------|---------------------------|
----------------------|----------------------|---------------------------|
--2----2----2----2----|--7----7----7----7----|--9---9-9---9---9--7-9--9--|
----------------------|----------------------|---------------------------|


  
------------------------------------|----------------------------|
----------------------------10--12--|--9---9-9---9---9--9-9--12--|
--10---10-10---10----10--10---------|----------------------------|
------------------------------------|----------------------------|


  
----------------------------|-------------------------------|
----------------------------|-------------------------------|
--7----7----10---10-----10--|--0-0-0-0----0-0-0-0----0-0-0--|
----------------------------|-------------------------------|


   
-------------------------------|-------------------------------|
-------------------------------|-------------------------------|
--0-0-0-0----0-0-0-0----0-0-0--|--0-0-0-0----0-0-0-0----0-0-0--|
-------------------------------|-------------------------------|


-------------------------------|----------------------|----------------------|
-------------------------------|----------------------|----------------------|
--0-0-0-0----0-0-0-0----0-0-0--|--0----0----0----0----|--0----0----0----0----|
-------------------------------|----------------------|----------------------|


     
----------------------|----------------------||
----------------------|----------------------||
--0----0----0----0----|--0----0----0----0----||
----------------------|----------------------||


Suggest correction
Creating personal tab
Creating personal tab
You can edit any tab online and save it as your Personal.

You can edit, replace or remove any tab part or add personal notes – all changes will be seen only by you.

Personal tabs can be accessed anytime from any device, even offline.
Learn more »
Give kudos to tab author, rate the tab!
1 2 3 4 5
comments
print report bad tab
1 comment total.
0 reply
kdvd72 10 Nov 16, 2015 04:01 PM

Very over simplified. There is a clear riff in this song most of the way through it, which is pretty defining, not just simple root notes as is tabbed.

guest
You may want to rate the tab now too:
select rating
Wanna post a correction for this tab? Suggest correction