Oops, an error
Loading. Please wait.

Caballo Diablo bass

version 1
version 1

Whole song

Interactive

82 views 3 this week
no commentswrite comment
1 2 3 4 5
3 more votes to show rating
add to favorites
×
Save as Personal and add changes to this tab that will be seen only by you. Learn more ›
×
You can save this tab as Personal to edit and correct it or add notes. All changes will be seen only by you. Learn more »
launch autoscroll
font size
0
reset
guitar tuner
edit
Autoscroll
slow
fast
+/-
esc
set tempo
stop
Author
Difficulty
Tabbed by: 6METAL6BASSIST6
E-mail: petergriffinav@gmail.com

Tuning: EADG

G|------------------------------------------------------------------------------------------------|
D|7-------------------7---5-------5---------------------------------------------------7---5-------|
A|------------7-----------------------5---5---6---7-------7-----------------------------------7---|
E|------------------------------------------------------------7-------7---5-----------------------|

G|------------------------------------------------------------------------------------------------|
D|7-------------------7---5-------5-------------------------------------------------------4---7---|
A|------------7-----------------------5---5---6---7-------------------7---------3-----5-----------|
E|------------------------------------------------------------7-----------5-----------------------|

G|7-----------|
D|----7---4---|
A|------------|
E|------------|

G|9-----------------------------------------------|
D|----10--7---9-----------7-7-----7-7-7-\---------|
A|----------------10--7---------------------------|
E|------------------------------5-----------------|

0:18

G|------------------------------------------------------------------------------------------------|
D|------------------------------------------------------------------------------------------------|
A|------------7-----------------------5-----------------------3-----------------------------------|
E|5-----------------------3-------------------3---1-------------------1---0-------0---7-----------|

G|------------------------------------------------------------------------------------------------|
D|------------------------------------------------------------------------------------------------|
A|------------7-----------------------5-----------------------3-----------------------------------|
E|5-------------------5---3-------3-----------3---1-------1-----------1---0-------0---7-----------|

0:33

G|------------------------------------------------------------------------------------------------|
D|------------------------------------------------------------------------------------------------|
A|------------7-----------------------5-------7---8-------8-----------8---7-----------------------|
E|5-----------------------3-------3---------------------------8-------------------7---0-------3---|

G|------------------------------------------------------------------------|
D|------------------------------------------------------------------------|
A|------------7-----------------------5---5---7---8-------8-----------8---|
E|5-----------------------3-------3---------------------------8-----------|

G|------------------------------------------------|
D|------------------------------------------------|
A|7-----------7-----------7-----------7-----------|
E|--------7-----------7-----------7-------7---7---|

0:48

G|------------------------------------------------------------------------------------------------|
D|------------7-----------------------5-----------------------5-----------------------7-----------|
A|------3---7-----7-------------2---5-----5---2---------2---5-----5---2---------3---7-----7---3---|
E|5-------------------5---3-----------------------3-----------------------5-----------------------|

G|----------------------------------------------------5-----------7-------|
D|------------------------------------5-----------3-------3---5-------5---|
A|------3---7-----7-------------2---5-----5-------------------------------|
E|5-----------5-------5---3-------------------3---------------------------|

1:00

G|------------------------------------------------------------------------------------------------|
D|7-------------------7---5-------5-------------------------------------------------------5---6---|
A|------------7-----------------------5-------6---7-------7-----------7---------------7-----------|
E|------------------------------------------------------------7-----------5-----------------------|

G|------------------------------------------------------------------------------------------------|
D|7-------7-----------7---5-------5-------------------------------------------------------4---7---|
A|------------7-----------------------5---5---6---7-------------------7---------3-----5-----------|
E|------------------------------------------------------------7-----------5-----------------------|

G|7-----------|
D|----7---4---|
A|------------|
E|------------|

G|9-----------------------------------------------9-----------------------------------------------|
D|----10--7---9-----------7-----------7---------------10--7---9-----------7-7-----7-7-7-\---------|
A|----------------10--7-----------7-----------7-------------------10--7---------------------------|
E|------------------------------------------------------------------------------5-----------------|

1:20

G|------------------------------------------------------------------------------------------------|
D|------------------------------------------------------------------------------------------------|
A|------------7-----------------------5-----------------------3-----------------------------------|
E|5-----------------------3-------3-----------3---1-----------------------0-------0---7-----------|

G|------------------------------------------------------------------------------------------------|
D|------------------------------------------------------------------------------------------------|
A|------------7-----------------------5-----------------------3-----------------------------------|
E|5-------------------5---3-------------------3---1-------------------1---0-----------7-----------|

1:37

G|------------------------------------------------------------------------------------------------|
D|------------------------------------------------------------------------------------------------|
A|------------7-----------------------5-----------------------3-------------------------------7---|
E|5-----------------------3-------------------3---1-------------------1---0-------0---7-----------|

G|------------------------------------------------------------------------|
D|------------------------------------------------------------------------|
A|------------7-----------------------5-----------------------3-----------|
E|5-------5-----------5---3-----------------------1-------1-----------1---|

G|------------------------------------------------|
D|------------------------------------------------|
A|------------7-----------7-----------7-----------|
E|0-------7-----------7-----------7-----------7---|

1:51

G|------------------------------------------------------------------------------------------------|
D|------------7-----------------------5-----------------------5-----------------------7-----------|
A|----3---7-------7-------------2---5-----5---2---------2---5-----5---2---------3---7-----7---3---|
E|5-------------------5---3-----------------------3-----------------------5-----------------------|

G|------------------------------------------------------------------------|
D|------------7-----------------------5-----------------------------------|
A|------3---7-----7-------------2---------5-----------3-----------5-------|
E|5-------------------5---3-------------------3---1-------1---3-------3---|

G|------------------------------------------------------------------------------------------------|
D|----------------------------------------------------------------------------------------4---7---|
A|------------7-----------------------5---5---6---7-------7-----------7---------3---3-5-----------|
E|5-----------------------3-----------------------------------7-----------5-----------------------|

G|9-----------------------|
D|----10--7---9-----------|
A|----------------10--7---|
E|------------------------|

2:12

G|------------------------------------------------------------------------------------------------|
D|------------------------------------------------------------------------------------------------|
A|------------7-----------------------5-----------------------3-----------------------------------|
E|5-----------------------3-------------------3---1-------1-----------1---0-------0---7-------7---|

G|------------------------------------------------------------------------------------------------|
D|------------------------------------------------------------------------------------------------|
A|------------7-----------------------5-----------------------3-----------------------------------|
E|5-------5-----------5---3-------3-----------3---1-------1-----------1---0-------0---7-------7---|

2:25

G|------------------------------------------------------------------------------------------------|
D|------------------------------5---------------------------------------------------------6---9---|
A|------------7-----------------------5-----------------------3-----------------------7-----------|
E|5-------5-----------5---3-------3-----------3---1-------1-----------1---0---4---7---------------|

G|------------------------------------------------------------------------------------9-----------|
D|----------------------------------------------------------------------------6---9-------9-------|
A|------------7-----------------------5-----------------------3-------3---7-------------------7-/-|
E|5-------5-----------5---3-----3-3-----------3---1-------1---------------------------------------|

2:39

G|------------------------------------------------------------------------------------------------|
D|------------14------------------9---12------------------7---10------------------6---9-----------|
A|12------12----------12--10------------------10--8-------------------8---7-----------------7---/-|
E|------------------------------------------------------------------------------------------------|

G|------------14-----------------------12-----------------------10-------------------------9-----------|
D|----10--14------14----------9---12-12----12----------7---10-10----10-10----------6---9-------9-------|
A|12------------------12--10-------------------10--8-----------------------8---7-------------------7---|
E|-----------------------------------------------------------------------------------------------------|

G|------------------------7-----------9-----------------------------------------------|
D|----------------4---7-------7---4-------10--7---9-----------7-7-----7-7-7-\---------|
A|------3-----5---------------------------------------10--7---------------------------|
E|5-----------------------------------------------------------------5-----------------|

2:58

G|------------------------------------------------------------------------------------------------|
D|------------------------------------------------------------------------------------------------|
A|------------7-----------------------5-----------------------3-----------------------------------|
E|5-----------------------3-----------------------1-----------------------0-------0---7-------\---|

G|------------------------------------------------------------------------------------------------|
D|------------------------------------------------------------------------------------------------|
A|------------7-----------------------5-----------------------3-----------------------------------|
E|5-----------------------3-----------------------1-------1-----------1---0-------0---7-------6---|

3:12

G|------------------------------------------------------------------------------------------------|
D|------------------------------------------------------------------------------------------------|
A|------------7-------\---------------5-------5-\-------------3-------------------------------7---|
E|5-----------------------3-------3---------------1-------1-----------1---0-------0---7-----------|

G|------------------------------------------------------------------------------------------------|
D|------------------------------------------------------------------------------------------------|
A|------------7-----------------------5-----------------------3-----------------------7-----------|
E|5-------------------5---3-------3---------------1-------5-----------1---0-------7-----------7---|

3:26

G|------------------------------------------------------------------------------------------------|
D|7-------------------7---5-----------------------------------------------------------9-----------|
A|------------7-----------------------5-------7---8-------8-----------8---7-------7-----------7---|
E|------------------------------------------------------------8-----------------------------------|

G|------------------------------------------------------------------------|
D|7-------7-----------7---5-------5---------------------------------------|
A|------------7-----------------------5-------7---8-------8-----------8---|
E|------------------------------------------------------------8-----------|

G|--------------------------------9---9-----------|
D|----------------------------9-----------9-------|
A|7-----------7-----------7-------------------7---|
E|--------7-----------7---------------------------|

3:42

G|------------------------------------------------------------------------------------------------|
D|------------7-----------------------5-----------------------5-----------------------7-----------|
A|------3---7-----7-------------2---5-----5---2---------2---5-----5---2---------3---7-----7---3---|
E|5-------------------5---3-----------------------3-----------------------5-----------------------|

G|----------------------------------------------------5-----------7-------|
D|------------7-----------------------5-----------3-------3-/-5-------5---|
A|------3---7-----7-------------2---5-----5-------------------------------|
E|5-------------------5---3-------------------3---------------------------|

3:54

G|------------------------------------------------------------------------------------------------|
D|7-------------------7---5-------5-------------------------------------------------------5---6---|
A|------------7-----------------------5---5---6---7-------7-----------7---------3-----7-----------|
E|------------------------------------------------------------7-----------5-----------------------|

G|------------------------------------------------------------------------------------------------|
D|7-------7-----------7---5-------5---5---------------------------------------------------4---7---|
A|------------7-----------------5---5-----5---6---7-------7-----------7---------3---3-5-----------|
E|------------------------------------------------------------7-----------5-----------------------|

G|7-----------|
D|----7---4---|
A|------------|
E|------------|

G|------------------------------------------------------------------------------------------------|
D|--------------------------------------------------------5---------------------------------------|
A|------------------------------------------------------------------------------------------------|
E|5---------------3-----------------------5-------------------------------------------1-----------|

            
            
Suggest correction
Creating personal tab
Creating personal tab
You can edit any tab online and save it as your Personal.

You can edit, replace or remove any tab part or add personal notes – all changes will be seen only by you.

Personal tabs can be accessed anytime from any device, even offline.
Learn more »
Give kudos to tab author, rate the tab!
1 2 3 4 5
comments
print report bad tab
guest
You may want to rate the tab now too:
select rating
Wanna post a correction for this tab? Suggest correction