Oops, an error
Loading. Please wait.

Cmon Eileen tab

1,336 views 1 this week
1 commentread comment
1 2 3 4 5
3 more votes to show rating
add to favorites
×
Save as Personal and add changes to this tab that will be seen only by you. Learn more ›
×
You can save this tab as Personal to edit and correct it or add notes. All changes will be seen only by you. Learn more »
launch autoscroll
font size
0
reset
how to read this tab
guitar tuner
edit
Autoscroll
slow
fast
+/-
esc
set tempo
stop
-------------------------------------------------------------------------------
                            Come on Eileen - Dexy's Midnight Runners
-------------------------------------------------------------------------------
         |THIS TAB IS FOR BANJO AND GUITAR | - w/ Lyrics
         ----------------------------------


Tabbed by: BNJO MSTR
Email:  spiderman07410@yahoo.com

        ----------------------------------
        |THIS TAB IS FOR BANJO AND GUITAR | - w/ Lyrics
        ----------------------------------

Banjo  Tuning: GDGBD
Guitar Tuning: EADGBE


INTRO:

(First Part of Intro is Without Banjo....
 ...............Then)

                                               (Come On Eileen)

         C                           Em

d|----7------7--------7-----7---|-----7------7--------7-----7----------------|
B|----------------------5-------|-----------------------5--------------------|
G|------------------------------|--------------------------------------------|
D|------------------------------|--------------------------------------------|
g|-0-----0------0---0-----0-----|--0-------0------0---0-----0----------------|

         F                           C                  G

d|----7------7--------7-----7---|-------5---5-----------5---5----------------|
B|----------------------5-------|--5h6-------------5h6-----------------------|
G|------------------------------|--------------------------------------------|
D|------------------------------|--------------------------------------------|
g|-0-----0------0---0-----0-----|---------0---0-----------0---0--------------|


                                                  (Come On Eileen)

         C                           Em

d|----7------7--------7-----7---|-----7------7--------7-----7----------------|
B|----------------------5-------|-----------------------5--------------------|
G|------------------------------|--------------------------------------------|
D|------------------------------|--------------------------------------------|
g|-0-----0------0---0-----0-----|--0-------0------0---0-----0----------------|

         F                           C                  G

d|----7------7--------7-----7---|-------5---5-----------5--------------------|
B|----------------------5-------|--5h6-------------5h6----6--5---------------|
G|------------------------------|-------------------------------7------------|
D|------------------------------|--------------------------------------------|
g|-0-----0------0---0-----0-----|---------0---0------------------------------|


VERSE:

            Poor  Old  Johnny  Ra-ay

         C                           Em

d|----7------7--------7-----7---|-----7------7--------7-----7----------------|
B|----------------------5-------|-----------------------5--------------------|
G|------------------------------|--------------------------------------------|
D|------------------------------|--------------------------------------------|
g|-0-----0------0---0-----0-----|--0-------0------0---0-----0----------------|


  Sang His Song Upon  The Radio  Moved a Million Hearts in Mono

         F                           C                  G

d|----7------7--------7-----7---|-------5---5-----------5---5----------------|
B|----------------------5-------|--5h6-------------5h6-----------------------|
G|------------------------------|--------------------------------------------|
D|------------------------------|--------------------------------------------|
g|-0-----0------0---0-----0-----|---------0---0-----------0---0--------------|


           Our  Mothers    Cry--ed

         C                           Em

d|----7------7--------7-----7---|-----7------7--------7-----7----------------|
B|----------------------5-------|-----------------------5--------------------|
G|------------------------------|--------------------------------------------|
D|------------------------------|--------------------------------------------|
g|-0-----0------0---0-----0-----|--0-------0------0---0-----0----------------|


     Sang  Along  Who'd  Blame  Them

         F                           C                  G

d|----7------7--------7-----7---|-------5---5-----------5--------------------|
B|----------------------5-------|--5h6-------------5h6----6--5---------------|
G|------------------------------|-------------------------------7------------|
D|------------------------------|--------------------------------------------|
g|-0-----0------0---0-----0-----|---------0---0------------------------------|


      But You've Grown (A Grown Up)     So Grown (So Grown Up)

         C                           Em

d|----7------7--------7-----7---|-----7------7--------7-----7----------------|
B|----------------------5-------|-----------------------5--------------------|
G|------------------------------|--------------------------------------------|
D|------------------------------|--------------------------------------------|
g|-0-----0------0---0-----0-----|--0-------0------0---0-----0----------------|


        Now I Must Say More Than Ever                 (Come On Eileen)

         F                           C                  G

d|----7------7--------7-----7---|-------5---5-----------5---5----------------|
B|----------------------5-------|--5h6-------------5h6-----------------------|
G|------------------------------|--------------------------------------------|
D|------------------------------|--------------------------------------------|
g|-0-----0------0---0-----0-----|---------0---0-----------0---0--------------|


           Toora-Loora-Toora-Loora

         C                           Em

d|----7------7--------7-----7---|-----7------7--------7-----7----------------|
B|----------------------5-------|-----------------------5--------------------|
G|------------------------------|--------------------------------------------|
D|------------------------------|--------------------------------------------|
g|-0-----0------0---0-----0-----|--0-------0------0---0-----0----------------|


   -Yay                And We Can Sing Just Like Our Fathers

         F                           C                  G

d|----7------7--------7-----7---|-------5---5----------0-0-0-0-0-0-0-0-------|
B|----------------------5-------|--5h6-------------5h6-0-0-0-0-0-0-0-0-------|
G|------------------------------|----------------------0-0-0-0-0-0-0-0-------|
D|------------------------------|----------------------0-0-0-0-0-0-0-0-------|
g|-0-----0------0---0-----0-----|---------0---0--------0-0-0-0-0-0-0-0-------|


CHORUS:


Come On Eileen,Oh I Swear   Ah come on lets, Take Off Ev--erything
                (Well he means)

        D              F#m            Em            G       A

d|--7--7---7-7-7---4--4---4-4-4---2--2---2-2-2---0--0---0-2-2--2-------------|
B|--7--7---7-7-7---2--2---2-2-2---0--0---0-0-0---0--0---0-2-2--2-------------|
G|--7--7---7-7-7---2--2---2-2-2---0--0---0-0-0---0--0---0-2-2--2-------------|
D|--7--7---7-7-7---4--4---4-4-4---2--2---2-2-2---0--0---0-2-2--2-------------|
g|--7--7---7-7-7------------------0--0---0-0-0---0--0---0--------------------|

With
 You In That Dress, My Thoughts I Confess, Verge on Dirty, Ah Come on Eileen


        D              F#m            Em            G       A

d|--7--7---7-7-7---4--4---4-4-4---2--2---2-2-2---0--0---0-2-2--2-------------|
B|--7--7---7-7-7---2--2---2-2-2---0--0---0-0-0---0--0---0-2-2--2-------------|
G|--7--7---7-7-7---2--2---2-2-2---0--0---0-0-0---0--0---0-2-2--2-------------|
D|--7--7---7-7-7---4--4---4-4-4---2--2---2-2-2---0--0---0-2-2--2-------------|
g|--7--7---7-7-7------------------0--0---0-0-0---0--0---0--------------------|


   D                                D

d|-7-----7----7-------9----9---------7-----7----7-------9----9---------------|
B|-------------------------------7---------------------------------7---------|
G|---------------------------------------------------------------------------|
D|---------------------------------------------------------------------------|
g|---2------2----2--2----2----2--------2------2----2--2----2----2------------|

VERSE:


                                                (Come On Eileen)

         C                           Em

d|----7------7--------7-----7---|-----7------7--------7-----7----------------|
B|----------------------5-------|-----------------------5--------------------|
G|------------------------------|--------------------------------------------|
D|------------------------------|--------------------------------------------|
g|-0-----0------0---0-----0-----|--0-------0------0---0-----0----------------|

         F                           C                  G

d|----7------7--------7-----7---|-------5---5-----------5--------------------|
B|----------------------5-------|--5h6-------------5h6----6--5---------------|
G|------------------------------|-------------------------------7------------|
D|------------------------------|--------------------------------------------|
g|-0-----0------0---0-----0-----|---------0---0------------------------------|

            These People Round' Here

         C                           Em

d|----7------7--------7-----7---|-----7------7--------7-----7----------------|
B|----------------------5-------|-----------------------5--------------------|
G|------------------------------|--------------------------------------------|
D|------------------------------|--------------------------------------------|
g|-0-----0------0---0-----0-----|--0-------0------0---0-----0----------------|

With Their Down Eyed Sunken Smoke-Dried Faces Resigned To What Their Fate is

         F                           C                  G

d|----7------7--------7-----7---|-------5---5-----------5---5----------------|
B|----------------------5-------|--5h6-------------5h6-----------------------|
G|------------------------------|--------------------------------------------|
D|------------------------------|--------------------------------------------|
g|-0-----0------0---0-----0-----|---------0---0-----------0---0--------------|


           But Not Us (Not Never)   No Not Us (Not Never)

         C                           Em

d|----7------7--------7-----7---|-----7------7--------7-----7----------------|
B|----------------------5-------|-----------------------5--------------------|
G|------------------------------|--------------------------------------------|
D|------------------------------|--------------------------------------------|
g|-0-----0------0---0-----0-----|--0-------0------0---0-----0----------------|


   We Are Far Too Young And Clever

         F                           C                  G

d|----7------7--------7-----7---|-------5---5-----------5--------------------|
B|----------------------5-------|--5h6-------------5h6----6--5---------------|
G|------------------------------|-------------------------------7------------|
D|------------------------------|--------------------------------------------|
g|-0-----0------0---0-----0-----|---------0---0------------------------------|


         Toora   -Loora               -Toora-   Loora

         C                           Em

d|----7------7--------7-----7---|-----7------7--------7-----7----------------|
B|----------------------5-------|-----------------------5--------------------|
G|------------------------------|--------------------------------------------|
D|------------------------------|--------------------------------------------|
g|-0-----0------0---0-----0-----|--0-------0------0---0-----0----------------|


     -Yay                  Eileen I'll Hum This Tune Forever

         F                           C                  G

d|----7------7--------7-----7---|-------5---5----------0-0-0-0-0-0-0-0-------|
B|----------------------5-------|--5h6-------------5h6-0-0-0-0-0-0-0-0-------|
G|------------------------------|----------------------0-0-0-0-0-0-0-0-------|
D|------------------------------|----------------------0-0-0-0-0-0-0-0-------|
g|-0-----0------0---0-----0-----|---------0---0--------0-0-0-0-0-0-0-0-------|

CHORUS:


Come On Eileen,Oh I Swear   Ah Come On Lets, Take Off Ev--erything
                (Well he means)

        D              F#m            Em            G       A

d|--7--7---7-7-7---4--4---4-4-4---2--2---2-2-2---0--0---0-2-2--2-------------|
B|--7--7---7-7-7---2--2---2-2-2---0--0---0-0-0---0--0---0-2-2--2-------------|
G|--7--7---7-7-7---2--2---2-2-2---0--0---0-0-0---0--0---0-2-2--2-------------|
D|--7--7---7-7-7---4--4---4-4-4---2--2---2-2-2---0--0---0-2-2--2-------------|
g|--7--7---7-7-7------------------0--0---0-0-0---0--0---0--------------------|

With
 You In That Dress, My Thoughts I Confess, Verge on Dirty, Ah Come on Eileen
                                                                    (Please)


        D              F#m            Em            G       A          D

d|--7--7---7-7-7---4--4---4-4-4---2--2---2-2-2---0--0---0-2-2--2-----7-------|
B|--7--7---7-7-7---2--2---2-2-2---0--0---0-0-0---0--0---0-2-2--2-----7-------|
G|--7--7---7-7-7---2--2---2-2-2---0--0---0-0-0---0--0---0-2-2--2-----7-------|
D|--7--7---7-7-7---4--4---4-4-4---2--2---2-2-2---0--0---0-2-2--2-----7-------|
g|--7--7---7-7-7------------------0--0---0-0-0---0--0---0------------7-------|

Becomes Slower

   Come On Eileen Taloora-Yay    Come On Eileen Taloora-Yay
                                                       (Now you have grown)
    D                           F#m                         G

d|-----4------4------4------4-------4------4------4------4-------5-------5---|
B|-----3------3------3------3-------2------2------2------2-------3-------3---|
G|-----2------2------2------2-------2------2------2------2-------4-------4---|
D|-0-------0------0------0------2-------2------2------2------5-------5-------|
g|---------------------------------------------------------------------------|

  Come On, Eileen Taloora
   (now you have shown, oh,      Eileen)

                   D             A

d|-----5------5-------4-------4-------7-------7------------------------------|
B|-----3------3-------3-------3-------5-------5------------------------------|
G|-----4------4-------2-------2-------6-------6------------------------------|
D|-5-------5-------0------0-------7-------7----------------------------------|
g|---------------------------------------------------------------------------|


Said Come on, Eileen taloo-rye-aye  Come on, Eileen taloo-rye-aye
  (You've Grown)              (So Grown)
                                 (How Do You Feel)

    D                           F#m                           G
(Faster)
d|-----4------4------4------4-------4------4------4------4-------5-------5---|
B|-----3------3------3------3-------2------2------2------2-------3-------3---|
G|-----2------2------2------2-------2------2------2------2-------4-------4---|
D|-0-------0------0------0------2-------2------2------2------5-------5-------|
g|---------------------------------------------------------------------------|

Come on, Eileen taloo-ra
(Now I must Say More Than Ever)  Things Round Here Have Changed

                    D              A
d|-----5------5-------4-------4-------7-------7------------------------------|
B|-----3------3-------3-------3-------5-------5------------------------------|
G|-----4------4-------2-------2-------6-------6------------------------------|
D|-5-------5-------0------0-------7-------7----------------------------------|
g|---------------------------------------------------------------------------|

        Toooooraaa-Loooraaa-----Toooraaa-Looraaaa------------Yaaay

     D                           F#m                           G

(Way Faster)
d|-----4------4------4------4-------4------4------4------4-------5-------5---|
B|-----3------3------3------3-------2------2------2------2-------3-------3---|
G|-----2------2------2------2-------2------2------2------2-------4-------4---|
D|-0-------0------0------0------2-------2------2------2------5-------5-------|
g|---------------------------------------------------------------------------|


                   D D D D A A A A


d|-----5------5----4-4-4-4-7-7-7-7-------------------------------------------|
B|-----3------3----3-3-3-3-5-5-5-5-------------------------------------------|
G|-----4------4----2-2-2-2-6-6-6-6-------------------------------------------|
D|-5-------5-------0-0-0-0-7-7-7-7-------------------------------------------|
g|---------------------------------------------------------------------------|


CHORUS:


Come On Eileen,Oh I Swear   Ah come on lets, Take Off Ev--erything
                (Well he means)

        D              F#m            Em            G       A

d|--7--7---7-7-7---4--4---4-4-4---2--2---2-2-2---0--0---0-2-2--2-------------|
B|--7--7---7-7-7---2--2---2-2-2---0--0---0-0-0---0--0---0-2-2--2-------------|
G|--7--7---7-7-7---2--2---2-2-2---0--0---0-0-0---0--0---0-2-2--2-------------|
D|--7--7---7-7-7---4--4---4-4-4---2--2---2-2-2---0--0---0-2-2--2-------------|
g|--7--7---7-7-7------------------0--0---0-0-0---0--0---0--------------------|

With
 You In That Dress, My Thoughts I Confess, Verge on Dirty, Ah Come on Eileen


        D              F#m            Em            G       A

d|--7--7---7-7-7---4--4---4-4-4---2--2---2-2-2---0--0---0-2-2--2-------------|
B|--7--7---7-7-7---2--2---2-2-2---0--0---0-0-0---0--0---0-2-2--2-------------|
G|--7--7---7-7-7---2--2---2-2-2---0--0---0-0-0---0--0---0-2-2--2-------------|
D|--7--7---7-7-7---4--4---4-4-4---2--2---2-2-2---0--0---0-2-2--2-------------|
g|--7--7---7-7-7------------------0--0---0-0-0---0--0---0--------------------|


Come On Eileen,Oh I Swear   Ah come on lets, Take Off Ev--erything
                (Well he means)

        D              F#m            Em            G       A

d|--7--7---7-7-7---4--4---4-4-4---2--2---2-2-2---0--0---0-2-2--2-------------|
B|--7--7---7-7-7---2--2---2-2-2---0--0---0-0-0---0--0---0-2-2--2-------------|
G|--7--7---7-7-7---2--2---2-2-2---0--0---0-0-0---0--0---0-2-2--2-------------|
D|--7--7---7-7-7---4--4---4-4-4---2--2---2-2-2---0--0---0-2-2--2-------------|
g|--7--7---7-7-7------------------0--0---0-0-0---0--0---0--------------------|

With
 You In That Dress, My Thoughts I Confess, Verge on Dirty, Ah Come on Eileen


        D              F#m            Em            G       A

d|--7--7---7-7-7---4--4---4-4-4---2--2---2-2-2---0--0---0-2-2--2-------------|
B|--7--7---7-7-7---2--2---2-2-2---0--0---0-0-0---0--0---0-2-2--2-------------|
G|--7--7---7-7-7---2--2---2-2-2---0--0---0-0-0---0--0---0-2-2--2-------------|
D|--7--7---7-7-7---4--4---4-4-4---2--2---2-2-2---0--0---0-2-2--2-------------|
g|--7--7---7-7-7------------------0--0---0-0-0---0--0---0--------------------|

(FADE OUT)

| h  hammer-on

===============================================================================

            
            
Suggest correction
Creating personal tab
Creating personal tab
You can edit any tab online and save it as your Personal.

You can edit, replace or remove any tab part or add personal notes – all changes will be seen only by you.

Personal tabs can be accessed anytime from any device, even offline.
Learn more »
Give kudos to tab author, rate the tab!
1 2 3 4 5
comments
print report bad tab
1 comment total.
0 reply
Tone Jones 21,487 Sep 05, 2006 09:32 AM

Correction:Artist-Dexy's Midnight Runners

guest
Wanna post a correction for this tab? Suggest correction