Oops, an error
Loading. Please wait.

Long Haired Country Boy intro tab

version 1
version 1

Intro

Whole song

Interactive

33,192 views 9 this week
3 commentsread comments
1 2 3 4 5
x 15
add to favorites
×
Save as Personal and add changes to this tab that will be seen only by you. Learn more ›
×
You can save this tab as Personal to edit and correct it or add notes. All changes will be seen only by you. Learn more »
launch autoscroll
font size
0
reset
how to read this tab
guitar tuner
edit
Autoscroll
slow
fast
+/-
esc
set tempo
stop
--------------------------------------------------------------------------
                  Charlie Daniels Band - Long Haired Country Boy
-------------------------------------------------------------------------------

Tabbed by: Thurston Plumley
Email: xxgoddlyxx@yahoo.com

Tuning: Standard

e|-----2----2----------------------------------------------------------------|
B|-----3----3----------------------------------------------------------------|
G|-----2----2------------------0---------------------------------------------|
D|---0----0---------0----3b-0----0-3-0-2-0-----------3b-0--------------------|
A|-------------0-3----0--------------------3-0---0-3-------------------------|
E|---------------------------------------------3-----------------------------|

The rest of the song I play differently, adding my own picking, and strumming in.
It's not hard to figure out. By the way.  I'm 16 years old, this is my first tab
ever, so take it easy on me.

            
            
Suggest correction
Creating personal tab
Creating personal tab
You can edit any tab online and save it as your Personal.

You can edit, replace or remove any tab part or add personal notes – all changes will be seen only by you.

Personal tabs can be accessed anytime from any device, even offline.
Learn more »
comments
print report bad tab
3 comments total.
0 reply
Alex Thirkell 32 Mar 07, 2007 04:28 AM

not great in the 'accuracy' department.....

0 reply
bluesbro1985 10 Feb 08, 2014 02:25 AM

awesome tab

0 reply
realjeep7 10 Mar 23, 2016 06:02 AM

Play it again, Sam!

INTRO:
e |-----2-----2-------------------------------------------2-----2--|
B |-----3-----3-------------------------------------------3-----3--|
G |-----2-----2----------------5--------------------------2-----2--|
D |--0--0--0--0-----0---3b-0-----5-7-0-5-0-3-0-----0h3-0--0-----0--|
A |-------------0h2---2------------------------0h2-----------0-----|
E |----------------------------------------------------------------|

guest
Wanna post a correction for this tab? Suggest correction