Oops, an error
Loading. Please wait.

Long Haired Country Boy Chords

version 2
version 2

Whole song

Interactive

109,533 views 138 this week
7 commentsread comments
1 2 3 4 5
x 107
add to favorites
launch autoscroll
font size
0
reset
transpose
0
reset
simplify chords
display chords
guitar tuner
×
Best way to learn
"Long Haired Country Boy"
Autoscroll
slow
fast
+/-
esc
set tempo
stop
Author
Song: Charlie Daniels  Long Haired Country Boy


riff

e----------------------------------------------------|
B----------------------------------------------------|
G---3---3-----5--------------------------------------|
D---------5-7---7-5-3-0-7-5-3-0----3-5-3-------3---3-|
A-5---5------------------------3-5-------3-5-5---5---|
E----------------------------------------------------|

[Verse 1]

D
People say I'm no good and crazy as a loon

Cause I get stoned in the mornin, get drunk in the afternoon

Kinda like my ole blue tick hound I like to lay around in the shade
                                               D7
I ain't got no money but I've damn sure got it made


[Chorus]

            G
And I ain't askin' nobody for nothing
                        D
If I can't get it on my own
             A7
If you don't like the way I'm livin'
          G                                 D
You just leave this long haired country boy alone


[Verse 2]

D
Poor girl wants to marry and the rich girl wants to flirt

Rich man goes to college and the poor man goes to work

Drunkard wants another drink of wine and the politician wants a vote
                                                            D7
I don't want much of nothing at all but I will take another toke


[Chorus]

            G
And I ain't askin' nobody for nothing
                        D
If I can't get it on my own
             A7
If you don't like the way I'm livin'
          G                                 D
You just leave this long haired country boy alone


[Verse]

Preacher man talkin' on the radio, puttin' down the rock and roll
He wants me to give a donation cause he's worried about my soul
He said Jesus walked on the water and I know that it's true
But sometimes I think that preacher man might do a little walkin' too


[Chorus]

            G
And I ain't askin' nobody for nothing
                        D
If I can't get it on my own
             A7
If you don't like the way I'm livin'
          G                                 D
You just leave this long haired country boy alone
Suggest correction
comments
print report bad tab
7 comments total. Showing first comments.
0 reply
tongue untied 91 Feb 25, 2007 05:22 PM

good tab- dont like the d7 or the a7 when just playin the chords- sounds better just standard d and a

0 reply
ksredneck27 51 Nov 29, 2008 11:50 AM

I play it like Travis Tritt plays it... Capo on the Second fret... does anyone know the solo tab for it being played this way...

+1 reply
realjeep7 10 Mar 23, 2016 06:00 AM

Wow...please try this for the intro

INTRO:
e |-----2-----2-------------------------------------------2-----2--|
B |-----3-----3-------------------------------------------3-----3--|
G |-----2-----2----------------5--------------------------2-----2--|
D |--0--0--0--0-----0---3b-0-----5-7-0-5-0-3-0-----0h3-0--0-----0--|
A |-------------0h2---2------------------------0h2-----------0-----|
E |----------------------------------------------------------------|

guest
You may want to rate the tab now too:
select rating
Wanna post a correction for this tab? Suggest correction