Oops, an error
Loading. Please wait.

She Said No bass

131 views 1 this week
no commentswrite comment
1 2 3 4 5
3 more votes to show rating
add to favorites
×
Save as Personal and add changes to this tab that will be seen only by you. Learn more ›
×
You can save this tab as Personal to edit and correct it or add notes. All changes will be seen only by you. Learn more »
launch autoscroll
font size
0
reset
guitar tuner
edit
Autoscroll
slow
fast
+/-
esc
set tempo
stop
Author
Difficulty
“She said No”-The Cheaters
Tuning:Standard

G|-------------------------------------------------------|
D|-------------------------------------------------------|  Intro/Post Chorus
A|------------------3-3-3-3-3----------------------------|         Part 1
E|7-7-5-7-5-7-5-7----------------------------------------|

G|---------------------------------------|
D|---------------------------------------| Verse
A|--------4-----------5--7-4-------------| Part 2
E|7-7-5-7---5-----7-7--------5-----------|

G|--------------------------------------------------------|
D|--------------------------------------------------------| Pre Chorus
A|---------------------0-1-2------------------------------|   Part 3
E|2-2-2-2-2-2-2-2--2--------------------------------------|

G|------------------------------------------------------------------|
D|--4-0-2-4---------------------------------------------------------| Chorus
A|2---------5-5-5---------------------------------------------------|  Part 4
E|----------------5-5-5---------------------------------------------|

  Song Order:
Part 1: x4
Part 2: x6
Part 3: x1
Part 4: x4
Part 1: x2
Part 2: x7
Part 3: x1
Part 4: x4
Part 1: x2
Part 2: x12
Part 3: x1
Part 4: x4
Part 1: x4

This is a Very good Mod/Punk-ish band hailing from Oslo Norway. Their synopsis is
a blend of The Maggots, Indikation and a seriously pissed-off The Who in a rehearsal room
1964, and youre getting close to the essence of the Cheaters music. Shockingly good!” 
Holstad” Their original Bass Player’s name is Christian Hødnesdal. He had to leave the
to focus on life and their new bassist’s name is Andreas Frøland. Both are incredibly 
bass players and the band is full of amazing musicians. Their myspaceis : myspace.com/cheatersoslo

Thanks
-Michael
P.S. Check out my band at myspace.com/grungerevival

http://www.myspace.com/thecheatersoslo
Suggest correction
Creating personal tab
Creating personal tab
You can edit any tab online and save it as your Personal.

You can edit, replace or remove any tab part or add personal notes – all changes will be seen only by you.

Personal tabs can be accessed anytime from any device, even offline.
Learn more »
Give kudos to tab author, rate the tab!
1 2 3 4 5
comments
print report bad tab
guest
You may want to rate the tab now too:
select rating
Wanna post a correction for this tab? Suggest correction