Oops, an error
Loading. Please wait.

Pioneer Skies Tab

13 views 1 this week
no commentswrite comment
1 2 3 4 5
3 more votes to show rating
add to favorites
launch autoscroll
font size
0
reset
how to read this tab
guitar tuner
Autoscroll
slow
fast
+/-
esc
set tempo
stop
Help us to improve Ultimate-Guitar.com Take our survey!
×
Author
Difficulty
intermediate
"Pioneer Skies" by Chemical Brothers
From the 2002 album Come With Us

Can be played without capo or capo 12

e|--2-----2-----3|--2----2----0-|0h2-2----2----2-|--3------5-3---||
B|----3-----3----|2---2----2----|------1----1----|0---3-------3/5||
G|------2-----2--|------2----2--|--------2----2--|------3--------||
D|0~-------------|--------------|----------------|---------------||
A|---------------|4~------------|3~--------------|2~----~--1~----||
E|---------------|--------------|----------------|---------------||

OR

e|--7-----7-----7|6-7----7-----5|5h7----7------7|----------------||
B|----7-----7----|----6----6----|----5----5-----|0-8-----10-8----||
G|------7-----7--|------7----7--|------7----7---|----7--------7/9||
D|---------------|--------------|---------------|------8---------||
A|5~-------------|4~------------|3~-------------|----------------||
E|---------------|--------------|---------------|7~------6~------||

Then:

D Dmaj7 D7 Gm/D
(No lyrics, instrumental.)


h Hammer on
/ Slide up
~ Let ring
Suggest correction
Give kudos to tab author, rate the tab!
1 2 3 4 5
comments
print report bad tab
guest
You may want to rate the tab now too:
select rating
Wanna post a correction for this tab? Suggest correction