Oops, an error
Loading. Please wait.

Master Jack bass

7 views 1 this week
no commentswrite comment
1 2 3 4 5
3 more votes to show rating
add to favorites
×
Save as Personal and add changes to this tab that will be seen only by you. Learn more ›
×
You can save this tab as Personal to edit and correct it or add notes. All changes will be seen only by you. Learn more »
launch autoscroll
font size
0
reset
guitar tuner
edit
Autoscroll
slow
fast
+/-
esc
set tempo
stop
Tabbed by: 6METAL6BASSIST6
E-mail: petergriffinav@gmail.com

Tuning: EADG

0:05

G|----------------------------------------------------------------|.
D|--------------------------------3-------------------------------|.
A|----------------------------------------------------------------|.
E|----------------------------------------------------------------|.
                                                                   . x2
G|----------------------------------------------------------------|.
D|----------------------------------------------------------------|.
A|----------------------------------------------------------------|.
E|----------------------------------------------------------------|.

G|----------------------------------------------------------------|
D|3-------------------------------5-------------------------------|
A|----------------------------------------------------------------|
E|----------------------------------------------------------------|

G|----------------------------------------------------------------|
D|----------------------------------------------------------------|
A|----------------------------------------------------------------|
E|----------------------------------------------------------------|

0:30

G|----------------------------------------------------------------|
D|3-----------3---3-------3---------------------------------------| x3
A|--------------------------------3-----------3---3-------3-------|
E|----------------------------------------------------------------|

G|----------------------------------------------------------------|
D|3-----------3---3-------3-------5-----------5---5-------5-------|
A|------------------------------------------------------------5---|
E|----------------------------------------------------------------|

G|--------------------------------|
D|5-------3-------2---------------|
A|------------------------5-------|
E|--------------------------------|

0:49

G|----------------------------------------------------------------|
D|--------------------------------3-----------3---3-------3-------|
A|3-----------3---3-------3---------------------------------------|
E|----------------------------------------------------------------|

G|----------------------------------------------------------------|
D|----------------------------------------------------------------|
A|3-----------3---3-------1---2---3-----------3---3-------3-------|
E|------------------------------------------------------------3---|

G|----------------------------------------------------------------|
D|--------------------------------3-----------3---3-------3-------|
A|3-----------3---3-------3---------------------------------------|
E|----------------------------------------------------------------|

G|----------------------------------------------------------------|
D|----------------------------------------------------------------|
A|3-----------3---3-------1---2---3-----------3---3-------3-------|
E|----------------------------------------------------------------|

G|----------------------------------------------------------------|
D|3-----------3---3-------3-------5-----------5---5-------5-------|
A|----------------------------------------------------------------|
E|----------------------------------------------------------------|

G|----------------------------------------------------------------|
D|----------------------------------------------------------------|
A|3-----------3---3-------1---2---3-----------3---3-------3-------|
E|------------------------------------------------------------3---|

1:13

G|----------------------------------------------------------------|
D|3-----------3---3-------3---------------------------------------| x3
A|--------------------------------3-----------3---3-------3-------|
E|----------------------------------------------------------------|

G|----------------------------------------------------------------|
D|3-----------3---3-------3-------5-----------5---5-------5-------|
A|----------------------------------------------------------------|
E|----------------------------------------------------------------|

G|--------------------------------|
D|5-------3-------2---------------|
A|------------------------5-------|
E|--------------------------------|

1:31

G|----------------------------------------------------------------|
D|--------------------------------3-----------3---3-------3-------|
A|3-----------3---3-------3---------------------------------------|
E|----------------------------------------------------------------|

G|----------------------------------------------------------------|
D|----------------------------------------------------------------|
A|3-----------3---3-------1---2---3-----------3---3-------3-------|
E|------------------------------------------------------------3---|

G|----------------------------------------------------------------|
D|--------------------------------3-----------3---3-------3-------|
A|3-----------3---3-------3---------------------------------------|
E|----------------------------------------------------------------|

G|----------------------------------------------------------------|
D|----------------------------------------------------------------|
A|3-----------3---3-------1---2---3-----------3---3-------3-------|
E|----------------------------------------------------------------|

G|----------------------------------------------------------------|
D|3-----------3---3-------3-------5-----------5---5-------5-------|
A|----------------------------------------------------------------|
E|----------------------------------------------------------------|

G|----------------------------------------------------------------|
D|----------------------------------------------------------------|
A|3-----------3---3-------1---2---3-----------3---3-------3-------|
E|------------------------------------------------------------3---|

1:55

G|----------------------------------------------------------------|
D|3-----------3---3-------3---------------------------------------| x3
A|--------------------------------3-----------3---3-------3-------|
E|----------------------------------------------------------------|

G|----------------------------------------------------------------|
D|3-----------3---3-------3-------5-----------5---5-------5-------|
A|----------------------------------------------------------------|
E|----------------------------------------------------------------|

G|--------------------------------|
D|5-------3-------2---------------|
A|------------------------5-------|
E|--------------------------------|

2:13

G|----------------------------------------------------------------|.
D|--------------------------------3-----------3---3-------3-------|.
A|3-----------3---3-------3---------------------------------------|.
E|----------------------------------------------------------------|.
                                                                   . x2
G|----------------------------------------------------------------|.
D|----------------------------------------------------------------|.
A|3-----------3---3-------1---2---3-----------3---3-------3-------|.
E|----------------------------------------------------------------|.

2:29

G|----------------------------------------------------------------|.
D|3-----------3---3-------3-------5-----------5---5-------5-------|.
A|----------------------------------------------------------------|.
E|----------------------------------------------------------------|.
                                                                   . x2
G|----------------------------------------------------------------|.
D|----------------------------------------------------------------|.
A|3-----------3---3-------1---2---3-----------3---3-------3-------|.
E|----------------------------------------------------------------|.

G|----------------------------------------------------------------|
D|3-----------------------------------5---------------------------|
A|----------------------------------------------------------------|
E|----------------------------------------------------------------|

G|------------------------------------------------|
D|------------------------------------------------|
A|--------3-----------3---3-------1-----2-----3---|
E|------------------------------------------------|
Suggest correction
Creating personal tab
Creating personal tab
You can edit any tab online and save it as your Personal.

You can edit, replace or remove any tab part or add personal notes – all changes will be seen only by you.

Personal tabs can be accessed anytime from any device, even offline.
Learn more »
Give kudos to tab author, rate the tab!
1 2 3 4 5
comments
print report bad tab
guest
You may want to rate the tab now too:
select rating
Wanna post a correction for this tab? Suggest correction