Oops, an error
Loading. Please wait.

Bee Bah Bee Bah Bee Boe tab

49 views 3 this week
no commentswrite comment
1 2 3 4 5
3 more votes to show rating
add to favorites
×
Save as Personal and add changes to this tab that will be seen only by you. Learn more ›
×
You can save this tab as Personal to edit and correct it or add notes. All changes will be seen only by you. Learn more »
launch autoscroll
font size
0
reset
how to read this tab
guitar tuner
edit
Autoscroll
slow
fast
+/-
esc
set tempo
stop
Author
Difficulty
About this tab version
Includes full lyrics and simplest key to play song in. Was this info helpful? Yes No
[Intro]
  Am               C   G
e|--------0--------0-0-3-3-------------------------------------------------------|
B|----------1---1--1-1-0-0-------------------------------------------------------|
G|-----2------2----0-0-0-0-------------------------------------------------------|
D|---2--2----------2-2-0-0-------------------------------------------------------|
A|-0---------------3-1-2-2-------------------------------------------------------|
E|---------------------3-3-----------------------------------------------------|x4

[Verse 1]
  Am               C   G
e|--------0--------0-0-3-3-------------------------------------------------------|
B|----------1---1--1-1-0-0-------------------------------------------------------|
G|-----2------2----0-0-0-0-------------------------------------------------------|
D|---2--2----------2-2-0-0-------------------------------------------------------|
A|-0---------------3-1-2-2-------------------------------------------------------|
E|---------------------3-3-----------------------------------------------------|x5
I try to find my real self
Maybe on the top shelf
I was looking through an old box trying on old clothes
I put the box back though
Wasn't really my show

[Chorus 2]
   Am                C      G
e|-0-0-0-0-0-0-0-0---0-0-0--3-3-3---|
B|-1-1-1-1-1-1-1-1---1-1-1--0-0-0---|
G|-2-2-2-2-2-2-2-2---0-0-0--0-0-0---|
D|-2-2-2-2-2-2-2-2---2-2-2--0-0-0---|
A|-0-0-0-0-0-0-0-0---3-3-3--2-2-2---|
E|--------------------------3-3-3-|x4
Bee Bah Bee Bah Bee Boe
Bee Bah Bee Bah Bee Boe
Bee Bah Bee Bah Bee Boe
Bee Bah Bee Bah Bee Boe

[Verse 2]
  Am               C   G
e|--------0--------0-0-3-3-------------------------------------------------------|
B|----------1---1--1-1-0-0-------------------------------------------------------|
G|-----2------2----0-0-0-0-------------------------------------------------------|
D|---2--2----------2-2-0-0-------------------------------------------------------|
A|-0---------------3-1-2-2-------------------------------------------------------|
E|---------------------3-3-----------------------------------------------------|x5
You'd think self discovery
Was really rather easy
I mean I'm standing right here
But the real real me
Was never really clear

[Chorus 2]
   Am                C      G
e|-0-0-0-0-0-0-0-0---0-0-0--3-3-3---|
B|-1-1-1-1-1-1-1-1---1-1-1--0-0-0---|
G|-2-2-2-2-2-2-2-2---0-0-0--0-0-0---|
D|-2-2-2-2-2-2-2-2---2-2-2--0-0-0---|
A|-0-0-0-0-0-0-0-0---3-3-3--2-2-2---|
E|--------------------------3-3-3---|
Bee Bah Bee Bah Bee Boe
Bee Bah Bee Bah Bee Boe
Bee Bah Bee Bah Bee Boe
Bee Bah Bee Bah Bee Boe

(Repeat to fade)
Suggest correction
Creating personal tab
Creating personal tab
You can edit any tab online and save it as your Personal.

You can edit, replace or remove any tab part or add personal notes – all changes will be seen only by you.

Personal tabs can be accessed anytime from any device, even offline.
Learn more »
Give kudos to tab author, rate the tab!
1 2 3 4 5
comments
print report bad tab
guest
You may want to rate the tab now too:
select rating
Wanna post a correction for this tab? Suggest correction