Oops, an error
Loading. Please wait.

Diksyonaryo Bass Tab

2,937 views 9 this week
no commentswrite comment
1 2 3 4 5
please rate
add to favorites
launch autoscroll
font size
0
reset
guitar tuner
Autoscroll
slow
fast
+/-
esc
set tempo
stop
Help us to improve Ultimate-Guitar.com Take our survey!
×
Author
Intro:
G|----------------------------------------------|
D|----------------------------------------------|
A|-----3-3S15S5----3—3-5---3-3S15---------------|
E|---3------------------------------------------|
Verse:
G|-----------------------5-5---3----------|
D|-----5-5---3--------------5---5---------|
A|----------5---5---3---------------------|
E|---3------------------------------------|
Fill In:
G|------5-3-----3--------------------|
D|------------5----5-3---------------|
A|---3-------------------5-----------|
E|---------------------------3-------|
Chorus:
G|-----------------------------------------------------------------|
D|-----------------------------------------------------------------|repeat 3x then
A|-----5-----3-----------------------------------------3S15--------|
E|-----------------------------------------------------------------|
Suggest correction
Give kudos to tab author, rate the tab!
1 2 3 4 5
comments
print report bad tab
guest
You may want to rate the tab now too:
select rating
Wanna post a correction for this tab? Suggest correction