Oops, an error
Loading. Please wait.

Lollipop Bass Tab

version 2
version 2

Whole song

13 views 3 this week
no commentswrite comment
1 2 3 4 5
3 more votes to show rating
add to favorites
launch autoscroll
font size
0
reset
guitar tuner
Autoscroll
slow
fast
+/-
esc
set tempo
stop
Help us to improve Ultimate-Guitar.com Take our survey!
×
Author
Difficulty
novice
Tabbed by: 6METAL6BASSIST6
E-mail: petergriffinav@gmail.com

Tuning: EADG

0:21

G|------------------------------------------------------------------------------------------------|
D|5---------5-------------7---------7-------4-----5---------5-------------7---------7-------4-----|
A|------------7-----------------------5-----------------------7-----------------------5-----------|
E|------------------------------------------------------------------------------------------------|

G|------------------------------------------------------------------------------------------------|
D|5---------5-------------7---------7-------4-----5-----------------------------------------------|
A|------------7-----------------------5-----------------------------------------------------------|
E|------------------------------------------------------------------------------------------------|

0:34

G|------------------------------------------------------------------------------------------------|
D|5---------------------4-5-----------------------5-----------5-----------------------------------|
A|------------3-----------------------3-----------------------------------3-----------5-----------|
E|------------------------------------------------------------------------------------------------|

G|------------------------------------------------------------------------------------------------|
D|5---------------------4-5-----------------------------------------------5-----------------------|
A|------------3-----------------------3-----------5-----------------------------------5-----------|
E|------------------------------------------------------------------------------------------------|

0:48

G|------------------------------------------------------------------------------------------------|
D|5---------5-------------7---------7-------4-----5---------5-------------7---------7-------4-----|
A|------------7-----------------------5-----------------------7-----------------------5-----------|
E|------------------------------------------------------------------------------------------------|

G|------------------------------------------------------------------------------------------------|
D|5---------5-------------7---------7-------4-----5-----------------------------------------------|
A|------------7-----------------------5-----------------------------------------------------------|
E|------------------------------------------------------------------------------------------------|

1:01

G|------------------------------------------------------------------------------------------------|
D|------------------------------------------------5-----------------------5-----------------5-----|
A|3-----------3-----------3-----------3-----------------------3-----------------------5-----------|
E|------------------------------------------------------------------------------------------------|

G|------------------------------------------------------------------------------------------------|
D|------------------------------------------------------------------------------------------------|
A|3-----------3-----------3-----------3-----------5-----------------------5-----------------------|
E|------------------------------------------------------------------------------------------------|

1:15

G|------------------------------------------------------------------------------------------------|
D|5---------5-------------7---------7-------4-----5---------5-------------7---------7-------4-----|
A|------------7-----------------------5-----------------------7-----------------------5-----------|
E|------------------------------------------------------------------------------------------------|

G|------------------------------------------------------------------------------------------------|
D|5---------5-------------7---------7-------4-----5-----------------------------------------------|
A|------------7-----------------------5-----------------------------------------------------------|
E|------------------------------------------------------------------------------------------------|

1:28

G|------------------------------------------------------------------------------------------------|
D|5---------------------4-5-----------------------5-----------5-----------------------------------|
A|------------3-----------------------3-----------------------------------3-----------5-----------|
E|------------------------------------------------------------------------------------------------|

G|------------------------------------------------------------------------------------------------|
D|5---------------------4-5-----------------------------------------------5-----------------------|
A|------------3-----------------------3-----------5-----------------------------------5-----------|
E|------------------------------------------------------------------------------------------------|

1:42

G|------------------------------------------------------------------------------------------------|
D|5---------5-------------7---------7-------4-----5---------5-------------7---------7-------4-----|
A|------------7-----------------------5-----------------------7-----------------------5-----------|
E|------------------------------------------------------------------------------------------------|

G|------------------------------------------------------------------------------------------------|
D|5---------5-------------7---------7-------4-----5-----------------------------------------------|
A|------------7-----------------------5-----------------------------------------------------------|
E|------------------------------------------------------------------------------------------------|

1:55

G|------------------------------------------------------------------------------------------------|
D|------------------------------------------------------------------------------------------------|
A|------------------------------------------------------------------------------------------------|
E|------------------------------------------------------------------------------------------------|

G|------------------------------------------------------------------------------------------------|
D|------------------------------------------------------------------------------------5-----------|
A|------------------------------------------------------------------------------------------------|
E|------------------------------------------------------------------------------------------------|
Suggest correction
Give kudos to tab author, rate the tab!
1 2 3 4 5
comments
print report bad tab
guest
You may want to rate the tab now too:
select rating
Wanna post a correction for this tab? Suggest correction