Oops, an error
Loading. Please wait.

Love Is A Two Way Street Bass Tab

4 views 1 this week
no commentswrite comment
1 2 3 4 5
3 more votes to show rating
add to favorites
launch autoscroll
font size
0
reset
guitar tuner
Autoscroll
slow
fast
+/-
esc
set tempo
stop
Help us to improve Ultimate-Guitar.com Take our survey!
×
Author
Difficulty
novice
Tabbed by: 6METAL6BASSIST6
E-mail: petergriffinav@gmail.com

Tuning: EADG

G|------------------------------------------------------------------------------------------------|
D|7-----------------------9-----------------------7-----------------------9-----------------------|
A|------------9-----------------------7-----------------------9-----------------------7-----------|
E|------------------------------------------------------------------------------------------------|

0:07

G|------------------------------------------------------------------------------------------------|
D|7-----------------------9-----------------------7-----------------------9-----------------------|
A|------------9-----------------------7-----------------------9-----------------------7-----------|
E|------------------------------------------------------------------------------------------------|

G|------------------------------------------------------------------------------------------------|
D|7-----------------------9-----------------------7-----------------------9-----------------------|
A|------------9-----------------------7-----------------------9-----------------------------------|
E|------------------------------------------------------------------------------------------------|

0:22

G|------------------------------------------------------------------------------------------------|
D|7-----------------------9-----------------------7-----------------------9-----------------------|
A|------------9-----------------------7-----------------------9-----------------------7-----------|
E|------------------------------------------------------------------------------------------------|

G|------------------------------------------------------------------------------------------------|
D|7-----------------------9-----------------------7-----------------------7---------5-4-----------|
A|------------9-----------------------7-----------------------7-----------------------------7-----|
E|------------------------------------------------------------------------------------------------|

0:38

G|------------------------------------------------------------------------------------------------|
D|------------4-----7-----------------------------------------4-----7-----------------------------|
A|5---------5-------------------------4-----7-----5---------5-------------------------4-----7-----|
E|------------------------5-----------------------------------------------5-----------------------|

G|------------------------------------------------------------------------------------------------|
D|------------4-----7-----------------------------------------------------------------------------|
A|5---------5-------------------------4-----7-----------------------------7-----------------7-----|
E|------------------------5-----------------------7-----------7-----------------------------------|

0:52

G|------------------------------------------------------------------------------------------------|
D|7-----------------------9-----------------------7-----------------------9-----------------------| x2
A|------------9-----------------------7-----------------------9-----------------------7-----------|
E|------------------------------------------------------------------------------------------------|

G|------------------------------------------------|
D|7-----------------------9-----------------------|
A|------------9-----------------------7-----------|
E|------------------------------------------------|

1:10

G|------------------------------------------------------------------------------------------------|
D|------------4-----7-----------------------------------------4-----7-----------------------------|
A|5---------5-------------------------4-----7-----5---------5-------------------------4-----7-----|
E|------------------------5-----------------------------------------------5-----------------------|

G|------------------------------------------------------------------------------------------------|
D|------------4-----7-----------------------------------------------------------------------------|
A|5---------5-------------------------4-----7-----------------------------7-----------------7-----|
E|------------------------5-----------------------7-----------7-----------------------------------|

1:26

G|------------------------------------------------------------------------------------------------|
D|7-----------------------9-----------------------7-----------------------9-----------------------|
A|------------9-----------------------7-----------------------9-----------------------7-----------|
E|------------------------------------------------------------------------------------------------|

G|------------------------------------------------------------------------------------------------|
D|7-----------------------9-----------------------7-----------------------9-----------------------|
A|------------9-----------------------7-----------------------9-----------------------------7-----|
E|------------------------------------------------------------------------------------------------|

1:41

G|------------------------------------------------------------------------------------------------|
D|7-----------------------9-----------------------7-----------------------9-----------------------| x2
A|------------9-----------------------7-----------------------9-----------------------7-----------|
E|------------------------------------------------------------------------------------------------|

G|------------------------------------------------------|
D|7-----------------------9-----------------------7-----|
A|------------9-----------------------7-----------------|
E|------------------------------------------------------|
Suggest correction
Give kudos to tab author, rate the tab!
1 2 3 4 5
comments
print report bad tab
guest
You may want to rate the tab now too:
select rating
Wanna post a correction for this tab? Suggest correction