Oops, an error
Loading. Please wait.

Mr Sandman Bass Tab

version 1
version 1

Whole song

Interactive

172 views 12 this week
no commentswrite comment
1 2 3 4 5
3 more votes to show rating
add to favorites
launch autoscroll
font size
0
reset
guitar tuner
Autoscroll
slow
fast
+/-
esc
set tempo
stop
Help us to improve Ultimate-Guitar.com Take our survey!
×
Author
Difficulty
novice
Tabbed by: 6METAL6BASSIST6
E-mail: petergriffinav@gmail.com

Tuning: EADG

0:12

G|--------|
D|--------|
A|7-------|
E|--------|

G|----------------------------------------------------------------|
D|7-------7-------7-------7-------6-------6-------6-------6-------|
A|----------------------------------------------------------------|
E|----------------------------------------------------------------|

G|6-------6-------6-------6---------------------------------------|
D|----------------------------------------------------------------|
A|--------------------------------9-------9-------9-------9-------|
E|----------------------------------------------------------------|

G|----------------------------------------------------------------|
D|9-------9-------9-------9---------------------------------------|
A|--------------------------------7-------7-------7-------7-------|
E|----------------------------------------------------------------|

G|----------------------------------------------------------------|
D|7-------7-------7-------7---------------------------------------|
A|--------------------------------8-------8-------7-------7-------|
E|----------------------------------------------------------------|

0:30

G|----------------------------------------------------------------|
D|7-------7-------7-------7-------6-------6-------6-------6-------|
A|----------------------------------------------------------------|
E|----------------------------------------------------------------|

G|6-------6-------6-------6---------------------------------------|
D|----------------------------------------------------------------|
A|--------------------------------9-------9-------9-------9-------|
E|----------------------------------------------------------------|

G|----------------------------------------------------------------|
D|9-------9-------9-------9---------------------------------------|
A|----------------------------------------------------------------|
E|--------------------------------10------10------10------10------|

G|----------------------------------------------------------------|
D|----------------9---------------7-------------------------------|
A|7-------7---------------7---------------7-----------------------|
E|------------------------------------------------5---------------|

G|------------------------------------------------------------------------------------------------|
D|------------------------------------------------------------------------------------------------|
A|------------------------------------------------------------------------------------------------|
E|------------------------------------------------------------------------------------------------|

G|------------------------------------------------------------------------------------------------|
D|------------------------------------------------------------------------------7-----------------|
A|------------------------------------------------------------------------------------9-----7-----|
E|------------------------------------------------------------------------------------------------|

0:56

G|------------------------------------------------------------------------------------------------|
D|------------7-----------------7-----------------------------6-----------------6-----------------|
A|------9-----------9-----------------9-----------------8-----------8-----------------8-----------|
E|10----------------------10----------------10----9-----------------------9-----------------9-----|

G|------------------------------------------------------6-----8-----6-----------6-----8-----------|
D|------6-----8-----6-----------6-----8-----------9-----------------------9-----------------9-----|
A|9-----------------------9-----------------9-----------------------------------------------------|
E|------------------------------------------------------------------------------------------------|

G|------------------------------------------------------6-----9-----6-----------------6-----------|
D|------6-----9-----6-----------6-----9-----------7-----------------------7-----9-----------7-----|
A|7-----------------------7-----------------7-----------------------------------------------------|
E|------------------------------------------------------------------------------------------------|

G|------------------------7-----------------------------6-----8-----6-----------------6-----------|
D|------------7-----9-----------9-----7-----9-----9-----------------------7-----9-----------9-----|
A|------9-----------------------------------------------------------------------------------------|
E|10----------------------------------------------------------------------------------------------|

1:12

G|------------------------------------------------------------------------------------------------|
D|------------7-----------------7-----------------------------6-----------------6-----------------|
A|------9-----------9-----------------9-----------------8-----------8-----------------8-----------|
E|10----------------------10----------------10----9-----------------------9-----------------9-----|

G|------------------------------------------------------6-----8-----6-----------6-----8-----------|
D|------6-----8-----6-----------6-----8-----------9-----------------------9-----------------9-----|
A|9-----------------------9-----------------9-----------------------------------------------------|
E|------------------------------------------------------------------------------------------------|

G|------------------------------------------------------------7-----9-----12----9-----7-----------|
D|------6-----9-----6-----------9-----------------------9-----------------------------------9-----|
A|7-----------------------7-----------10----7-----10----------------------------------------------|
E|------------------------------------------------------------------------------------------------|

G|------------------------9-----------------9-----7-----------------------------------------------|
D|9-----------9-----------------------9-----------------9-----7-----------------------------------|
A|------7-----------------------7-----------------------------------9-----------------------------|
E|------------------------------------------------------------------------10----------------------|

G|----------------------------------------------------------------|
D|----------------------------------------------------------------|
A|----------------------------------------------------------------|
E|----------------------------------------------------------------|

G|----------------------------------------------------------------|
D|----------------------------------------------------------------|
A|--------------------------------------------------------7-------|
E|----------------------------------------------------------------|

1:37

G|----------------------------------------------------------------|
D|7-------7-------7-------7-------6-------6-------6-------6-------|
A|----------------------------------------------------------------|
E|----------------------------------------------------------------|

G|----------------------------------------------------------------|
D|----------------------------------------------------------------|
A|--------------------------------9-------9-------9-------9-------|
E|9-------9-------9-------9---------------------------------------|

G|----------------------------------------------------------------|
D|9-------9-------9-------9---------------------------------------|
A|--------------------------------7-------7-------7-------7-------|
E|----------------------------------------------------------------|

G|----------------------------------------------------------------|
D|7---------------------------------------------------------------|
A|----------------------------------------------------------------|
E|----------------------------------------------------------------|

1:55

G|----------------------------------------------------------------|
D|7---------------7-------7-------6-------6-------6-------6-------|
A|--------7-------------------------------------------------------|
E|----------------------------------------------------------------|

G|----------------------------------------------------------------|
D|----------------------------------------------------------------|
A|--------------------------------9-------9-------9-------9-------|
E|9-------9-------9-------9---------------------------------------|

G|----------------------------------------------------------------|
D|9-------9-------9-------9---------------------------------------|
A|----------------------------------------------------------------|
E|--------------------------------10------10------10------10------|

G|----------------------------------------------------------------|
D|----------------9-------9-----------------------9-------9-------|
A|7-------7-----------------------7-------7-----------------------|
E|----------------------------------------------------------------|

G|----------------------------------------------------------------|
D|--------------------------------9-------9-----------------------|
A|7-------7-------7-------7-----------------------7-------7-------|
E|----------------------------------------------------------------|

G|----------------------------------------------------------------|
D|7-------7-------7-------7-------7-------7-------7-------7-------|
A|----------------------------------------------------------------|
E|----------------------------------------------------------------|
Suggest correction
Give kudos to tab author, rate the tab!
1 2 3 4 5
comments
print report bad tab
guest
You may want to rate the tab now too:
select rating
Wanna post a correction for this tab? Suggest correction