Oops, an error
Loading. Please wait.

Never On Sunday Bass Tab

46 views 1 this week
no commentswrite comment
1 2 3 4 5
3 more votes to show rating
add to favorites
launch autoscroll
font size
0
reset
guitar tuner
Autoscroll
slow
fast
+/-
esc
set tempo
stop
Help us to improve Ultimate-Guitar.com Take our survey!
×
Author
Difficulty
novice
Tabbed by: 6METAL6BASSIST6
E-mail: petergriffinav@gmail.com

Tuning: EADG

G|----------------------------------------------------------------|
D|----------------------------------------------------------------|
A|----------------------------------------------------------------|
E|----------------------------------------------------------------|

G|----------------------------------------------------------------|
D|----------------------------------------------------4---5---6---|
A|------------------------------------------------7---------------|
E|----------------------------------------------------------------|

G|----------------------------------------------------------------|
D|7-------------------------------7-------------------------------|
A|----------------7-------------------------------7---------------|
E|----------------------------------------------------------------|

G|--------------------------------|
D|7-------------------------------|
A|--------------------------------|
E|--------------------------------|

0:13

G|----------------------------------------------------------------|.
D|9---------------6-----------------------------------4---5---6---|.
A|--------------------------------7---------------7---------------|.
E|----------------------------------------------------------------|.
                                                                   . x3
G|----------------------------------------------------------------|.
D|7---------------------------------------------------------------|.
A|----------------7-------------------------------7---------------|.
E|--------------------------------5-------------------------------|.

G|----------------------------------------------------------------|
D|9---------------6-----------------------------------4---5---6---|
A|--------------------------------7---------------7---------------|
E|----------------------------------------------------------------|

G|----------------------------------------------------------------|
D|7-------------------------------7---------------9---------------|
A|----------------7---------------------------------------7-------|
E|----------------------------------------------------------------|

0:44

G|----------------------------------------------------------------|
D|7-------------------------------7-------------------------------|
A|----------------7-------------------------------7---------------|
E|----------------------------------------------------------------|

G|----------------------------------------------------------------|
D|9-------------------------------9-------------------------------|
A|----------------7-------------------------------7---------------|
E|----------------------------------------------------------------|

G|----------------------------------------------------------------|
D|----------------------------------------------------------------|
A|5---------------5---------------7---------------7---------------|
E|----------------------------------------------------------------|

G|----------------------------------------------------------------|
D|7-------------------------------7---------------9---------------|
A|----------------7---------------------------------------7-------|
E|----------------------------------------------------------------|

1:00

G|----------------------------------------------------------------|
D|7-------------------------------7-------------------------------|
A|----------------7-------------------------------7---------------|
E|----------------------------------------------------------------|

G|----------------------------------------------------------------|
D|9-------------------------------9-------------------------------|
A|----------------7-------------------------------7---------------|
E|----------------------------------------------------------------|

G|----------------------------------------------------------------|
D|----------------------------------------------------------------|
A|5---------------5---------------7---------------7---------------|
E|----------------------------------------------------------------|

G|----------------------------------------------------------------|
D|7---------------------------------------------------------------|
A|----------------7-----------------------------------------------|
E|--------------------------------5-------------------------------|

1:15

G|----------------------------------------------------------------|.
D|9---------------6-----------------------------------4---5---6---|.
A|--------------------------------7---------------7---------------|.
E|----------------------------------------------------------------|.
                                                                   . x3
G|----------------------------------------------------------------|.
D|7---------------------------------------------------------------|.
A|----------------7-------------------------------7---------------|.
E|--------------------------------5-------------------------------|.

G|----------------------------------------------------------------|
D|9---------------6-----------------------------------4---5---6---|
A|--------------------------------7---------------7---------------|
E|----------------------------------------------------------------|

G|----------------------------------------------------------------|
D|7---------------------------------------------------------------|
A|----------------7-----------------------------------------------|
E|--------------------------------5-------------------------------|

1:47

G|----------------------------------------------------------------|.
D|7-------------------------------7-------------------------------|.
A|----------------7-------------------------------7---------------|.
E|----------------------------------------------------------------|.
                                                                   .
G|----------------------------------------------------------------|.
D|9-------------------------------9-------------------------------|.
A|----------------7-------------------------------7---------------|.
E|----------------------------------------------------------------|.
                                                                   . x2
G|----------------------------------------------------------------|.
D|----------------------------------------------------------------|.
A|5---------------5---------------7---------------7---------------|.
E|----------------------------------------------------------------|.
                                                                   .
G|----------------------------------------------------------------|.
D|7-------------------------------7-------------------------------|.
A|----------------7-----------------------------------------------|.
E|----------------------------------------------------------------|.

2:18 until fadeout.

G|----------------------------------------------------------------|
D|9---------------6-----------------------------------4---5---6---|
A|--------------------------------7---------------7---------------|
E|----------------------------------------------------------------|

G|----------------------------------------------------------------|
D|7---------------------------------------------------------------|
A|----------------7-------------------------------7---------------|
E|--------------------------------5-------------------------------|
Suggest correction
Give kudos to tab author, rate the tab!
1 2 3 4 5
comments
print report bad tab
guest
You may want to rate the tab now too:
select rating
Wanna post a correction for this tab? Suggest correction